Song name
# A B C D E F G H I J K L M N O P Q R S T U V W X Y Z

The Chap - We Work In Bars tab

The Chap - We Work In Bars, intro/verse.

Capo on 2nd fret. 
Tabbed by sound so uncertain if this is the original way it was played.



e-----0-3---------0-----------------------0------------------------|
B---1---------1-----1---3-1-------------0---0-----------1-3-1------|
G-2---------2---2-----2-----0---------0-------0-------2-------2-0--|
D---------3-------------------2-----2-----------2---2-------------3|
A-------------------------------------------------0----------------|
E-------------------------------3-0--------------------------------|

e-----0-1-0h1p0-----0---------------------1-0-----------1-3-5^-----|
B-1-3-----------3-1---1---3-1-----------1-----3-1-----1-----6^-----|
G-----------------------0-----0-------------------3-2--------------|
D-------------------------------2-----3----------------------------|
A-----------------------------------1------------------------------|
E---------------------------------3--------------------------------|



Tabbed by oded belahousky.
Tap to rate this tab
# A B C D E F G H I J K L M N O P Q R S T U V W X Y Z