Song name
# A B C D E F G H I J K L M N O P Q R S T U V W X Y Z

The Chariot - They Drew Their Swords tab

They Drew Their Swords
The Chariot
Drop B

E-----------------------------------|
B-----------------------------------|
G--8-8-8-8-8-8-8-8-8-8-8-8-8-8-7/11-|
D--8-8-8-8-8-8-8-8-8-8-8-8-8-8-7/11-|
A--6-6-6-6-6-6-6-6-6-6-6-6-6-6-5/9--|
E-----------------------------------|

E--------------|
B--------------|
G--------------|
D--------------|
A------4-------|
E--0-7---7b-0--|

E--------------------------------------------------------------------------|
B--------------------------------------------------------------------------|
G--------------------------------------------------------------------------|
D--0-----------------------------------------------------------------------|
A--0-----------------------------------------------------------------------|
E--0-----------------------------------------------------------------------|

E-----------------------|
B-----------------------|
G----------4-4-4--5-5-5-|
D--0---0---4-4-4--5-5-5-|
A--0---0---2-2-2--3-3-3-|
E--0---0----------------|

E-------------|
B-----------5-|
G-----------8-|
D--1--1--x----|
A--1--1--x----|
E--1--1--x----|

Thank You!
Tap to rate this tab
# A B C D E F G H I J K L M N O P Q R S T U V W X Y Z