Song name
# A B C D E F G H I J K L M N O P Q R S T U V W X Y Z

The Chariot - And Shot Each Other tab

The Chariot
And Shot Each Other
Drop B (1 and 1/2 steps down, drop d.)

I have to give credit to the other "And Shot 
Each Other" tab on the site. I just made some
small changes. I think this is correct. Most
"The Chariot" songs are hard to transcribe,
so I hope this helps.

Riff A
E---------------------------|
B----------------13--13-13--|
G----------------16--16-16--|
D---------------------------|  4x
A--0-0-0-0-0-0--------------|
E--0-0-0-0-0-0--------------|

Riff B
E-------------------|
B-------------------|
G---------8--8-8----|
D---------8--8-8----|  4x
A--0------6--6-6----|
E--0----------------|

E---------------------------|
B----------------13--13-13--|
G----------------16--16-16--|
D---------------------------|
A--0-0-0-0-0-0--------------|
E--0-0-0-0-0-0--------------|

E--------------------------------------------------|
B--------------------------------------------------|
G--------------------------------------------------|
D-----3-----5-----3-----5-----3-----5-----3-----5--|
A--3-----5-----3-----5-----3-----5-----3-----5-----|
E--------------------------------------------------|

E------|
B--2b--|
G--5b--|
D------|
A------|
E------|

Riff C
E-----------------------|
B-----11-----13--16-16--|
G-----14-----16--16-16--|
D-----------------------|  4x
A--0------0-------------|
E--0------0-------------|

REACH THE PLAGUE!!!!!!!!!!!!!!!!!!!!!!!!!!!!!!!!!!!!!

Riff D
E-------------------|
B-----13-----15-15--|
G-----16-----18-18--|
D-------------------|  4x
A--0------0---------|
E--0------0---------|

Not sure about this part:
E--------------|
B--------------|
G--------------|
D--12p0--------|  4x
A--------12p0--|
E--------------|

E------------|
B------------|
G------------|
D--3--5-6-5--|
A--3--5-6-5--|
E--3--5-6-5--|

(clean w/ tremelo)
E------|
B------|
G--14--|
D--14--|
A--12--|
E------|

Riff E
E-----------------------------------------------------------------|
B-----------------------------------------------------------------|
G--5-5-5-5-5-5-5-5-5-5-5-5--5--7--8--4-4-4-4-4-4-4-4-4-4-4-4-4-4--|
D--5-5-5-5-5-5-5-5-5-5-5-5--5--7--8--4-4-4-4-4-4-4-4-4-4-4-4-4-4--|
A--3-3-3-3-3-3-3-3-3-3-3-3--3--5--6--2-2-2-2-2-2-2-2-2-2-2-2-2-2--|
E-----------------------------------------------------------------|

E--------------------------------------|
B--------------------------------------|
G--------------------------------------|
D--------------------------------------|  4x
A--0---------0----------0----------0---|
E--0---------0----------0----------0---|

E--0-0-0-0-0-0-0-0-0-0-0-0-0-0-0-0-0-0-0-0-0-0-0-0--|
B--5-5-5-5-5-5-5-5-5-5-5-5-6-6-6-6-6-6-6-6-6-6-6-6--|
G---------------------------------------------------|
D---------------------------------------------------|
A---------------------------------------------------|
E---------------------------------------------------|

Thanks! All credit to the first tab.
Tap to rate this tab
 
# A B C D E F G H I J K L M N O P Q R S T U V W X Y Z