Song name
# A B C D E F G H I J K L M N O P Q R S T U V W X Y Z

The Chariot - Teach tab

Teach
The Chariot
Drop B (down 1 and 1/2 steps, drop d)

Riff A
E---------------------------------------|
B---------------------------------------|
G--------7b--------7b--------7--7-7-7b--|
D----0---7b----0---7b----0---7--7-7-7b--|
A----0---5b----0---5b----0---5--5-5-5b--|
E----0---------0---------0--------------|

Mid Riff B
E-------------|
B-------------|
G-10-10-10-10-|
D-10-10-10-10-|
A-8--8--8--8--|
E-------------|

E--------------------------------------------------------------------------|
B--------------------------------------------------------------------------|
G--------------------------------------------------------------------------|
D--------------------------------------------------------------------------|
A-0-0-0-0-0-0--x-x-x-x-x-x-x-x-x-x-x-x-x-x-x-x-x-x-x-x-x-x-x-x-x-x-x-x-x-x-|
E-0-0-0-0-0-0--x-x-x-x-x-x-x-x-x-x-x-x-x-x-x-x-x-x-x-x-x-x-x-x-x-x-x-x-x-x-|

(Palm mute your hand around the middle of the two pickups instead of at the end of the strings.)

E------------------------|
B------------------------|
G------10b----------10b--|
D--0---10b---0------10b--|
A--0----8b---0---0---8b--|
E--0---------0---0-------|

(I cant figure out the timing of this, but you probably can.)

The next part is just open B powers then:

E--------------------------------------------------|
B--------------------------------------------------|
G--------------------------------------------------|
D--3-----------3--3-------------3--3------1--2--3--|
A----------3----------------3----------------------|
E-------3----------------3-------------------------|

Thanks! Hope you can figure out how the parts fit with each other.
Tap to rate this tab
# A B C D E F G H I J K L M N O P Q R S T U V W X Y Z