Song name
# A B C D E F G H I J K L M N O P Q R S T U V W X Y Z

The Chariot - Oversea tab

Oversea
The Chariot
Drop B (1 and 1/2 steps down, Drop D)
Probably the easiest The Chariot Song. 

E---------------------------------------------------------------------|
B--12-12b-12b-12b-12b-12b-12b-12b-12b-12b-12b-12b-12b-12b-12b-12b-----|
G--15-15b-15b-15b-15b-15b-15b-15b-15b-15b-15b-15b-15b-15b-15b-15b-----|
D---------------------------------------------------------------------|
A------------------------------------------------------------------0--|
E------------------------------------------------------------------0--|

E----------------------------------------------------/------------|
B----------------------------------------------------/------------|
G----------------------------------------------------/------------|
D--0----0----0----0----0----0----0----0----0----0----/--feedback--|
A--0----0----0----0----0----0----0----0----0----0----/------------|
E--0----0----0----0----0----0----0----0----0----0----/------------|

Go Back to first part. That's it! Thanks!
Tap to rate this tab
# A B C D E F G H I J K L M N O P Q R S T U V W X Y Z