Song name
# A B C D E F G H I J K L M N O P Q R S T U V W X Y Z

The Chariot - Heard This Noise tab

Heard This Noise
The Chariot
Drop B (1 and 1/2 steps down, Drop D)

E---------------------|
B-----------16--16b---|
G-----------19--19b---|
D--0---0-x------------|
A--0---0-x------------|
E--0---0-x------------|

("KC Wolf" Bass)

Then You Play Along:
E------------------------------|
B------------------------------|
G------------------------------|
D-------4-4--------------------|
A--0-0--2-2--5-5--0-0-1-1-1-1--|
E--0-0-------5-5--0-0-1-1-1-1--|

Go back to first part, then

E----------------------------------------------------------------|
B----------------------------------------------------------------|
G----------------------------------------------------------------|
D----------------------------------------------------------------|
A--0------------0------------0--------0--------0--------0--------|
E--0------------0------------0--------0--------0--------0--------|

That's it! Thanks!
Tap to rate this tab
# A B C D E F G H I J K L M N O P Q R S T U V W X Y Z