Song name
# A B C D E F G H I J K L M N O P Q R S T U V W X Y Z

The Chariot - Die Interviewer tab

Die Interviewer
The Chariot
Drop B (1 And 1/2 Steps Down, Drop D)

This is the best collection of parts
that I could gather up. Comment, rate,
and put more Die Interviewer parts up.
Thanks! 

(Banjo)

E---------------------------|
B---------------------------|
G---------------------------|
D---------------------------|
A--x-x-x-x-x-x---3-5-1-x-0--|
E--x-x-x-x-x-x---3-5-1-x-0--|

Next part is a little random,
but then there is this riff:

E------------------------------|
B------------------------------|
G------------------------------|
D------------------------------|
A-------10--10/11----0--15\10--|
E---0-0-10--10/11--0-0---------|

E-----------|
B--5-5-5-5--|
G--8-8-8-8--|
D-----------|
A-----------|
E-----------|

(Drums)

You just play along with the drums with open B
powers now, then:

E----------------------------------------------------------|
B----------------------------------------------------------|
G----------------------------------------------------------|
D----------------------------------------------------------|
A--5--3---3--5---5--3---3--5---8--6---8--6---8--6---8--6---|
E--5--3---3--5---5--3---3--5---8--6---8--6---8--6---8--6---|

For the end, make CRAZY noises! Thanks! Rate and
comment! I need your opinion. If you want a "The
Chariot" tab that hasn't been tabbed out, tell me! 
Tap to rate this tab
 
# A B C D E F G H I J K L M N O P Q R S T U V W X Y Z