Song name
# A B C D E F G H I J K L M N O P Q R S T U V W X Y Z

The Chariot - Someday In The Event That Mankind tab

Someday in the Event that Mankind...
The Chariot
Drop C (1 Step Down, Drop D)

D--------------------|
A----7--7--7--7--7---|
F----10-10-10-10-10--|
C--------------------|  4x
G--0-----------------|
C--0-----------------|

Make this sound by palm-muting various frets and
mixing it up with open B powers. Also, play it
super fast!
D-------------------------------------------------|
A-------------------------------------------------|
F-------------------------------------------------|
C-------------------------------------------------|
G--0x0x0x0x0x0x0x0x0x0x0x0x0x0x0x0x0x0x0x0x0x0x0--|
C--0x0x0x0x0x0x0x0x0x0x0x0x0x0x0x0x0x0x0x0x0x0x0--|

(feedback/random notes)

(Go back to fast part)

Then:
D-------------------------------------------------0-0-0-0-0-0-0-0-0-0-0-0--|
A------------------0-0-0-0-0-0-0-0-0-0-0-0--------5-5-5-5-5-5-5-5-5-5-5-5--|
F------------------3-3-3-3-3-3-3-3-3-3-3-3---------------------------------|
C--------------------------------------------------------------------------|
G--0-0--0--0--0-----------------------------0-0----------------------------|
C--0-0--0--0--0-----------------------------0-0----------------------------|

Keep repeating that part until you hear feedback.
That's it! PLZ COMMENT! I need your songs by The
Chariot you want tabbed!
Tap to rate this tab
# A B C D E F G H I J K L M N O P Q R S T U V W X Y Z