Song name
# A B C D E F G H I J K L M N O P Q R S T U V W X Y Z

The Chariot - Deaf Policemen tab

Deaf Policemen
The Chariot
Drop D (D A D G B E)

Please rate and comment!
  
E-------------------------------|
B-------------------------------|
G-------------------------------|
D--3p0--6p0--3p0--6p0--3-3-3p0--|
A--3p0--6p0--3p0--6p0--3-3-3p0--|
D--3p0--6p0--3p0--6p0--3-3-3p0--|

E---------------------------------------------------|
B---------------------------------------------------|
G--2-2-2-2-2-2-2-2-5-5-5-5-5-5-5-5------------------|
D--2-2-2-2-2-2-2-2-5-5-5-5-5-5-5-5-3-3-3-3-3-3-3-3--|
A--0-0-0-0-0-0-0-0-3-3-3-3-3-3-3-3-3-3-3-3-3-3-3-3--|
D----------------------------------3-3-3-3-3-3-3-3--|

E---------------------|
B---------------------|
G---------------------|
D--3----8-7--7-7h8p7--|
A--3------------------|
D--3------------------|

E---------------------------------------------------|
B---------------------------------------------------|
G------------------2-2-2-2-2-2-2-2------------------|
D--3-3-3-3-3-3-3-3-2-2-2-2-2-2-2-2-0-0-0-0-0-0-0-0--|
A--3-3-3-3-3-3-3-3-0-0-0-0-0-0-0-0-0-0-0-0-0-0-0-0--|
D--3-3-3-3-3-3-3-3-----------------0-0-0-0-0-0-0-0--|

E-------------------------------|
B-------------------------------|
G-------------------------------|
D--3p0--6p0--3p0--6p0--3-3-3p0--|
A--3p0--6p0--3p0--6p0--3-3-3p0--|
D--3p0--6p0--3p0--6p0--3-3-3p0--|

E----------------------------------------------|
B----------------------------------------------|
G----------------------------------------------|
D--3---3-----3-3-3----------3------3------3----|
A--3---3-----3-3-3----------3------3------3----|
D--3---3-----3-3-3----------3------3------3----|

Thanks!
Tap to rate this tab
# A B C D E F G H I J K L M N O P Q R S T U V W X Y Z