Song name
# A B C D E F G H I J K L M N O P Q R S T U V W X Y Z

The Chariot - Forgive Me Nashville tab

Forgive Me Nashville
The Chariot
The Fiancee
Drop B

This is mostly correct. If
there's an error, just comment
and tell me. Please rate and
comment!!

E--------------------|
B--------------------|
G--7-----------------|
D--7-6-6-6--4-5-4-0--|
A--5-6-6-6--4-5-4-0--|
E----6-6-6--4-5-4-0--|

Then:

E--------------------------------|
B--------------------------------|
G--------------------------------|
D-----------0--0------------10b--|
A-----------0--0------------10b--|
E--8-7-6-0--0--0--8-7-6-0-x-10b--|

Go back to the first part; Kind
of a mix and match of that riff,
I think you can figure it out.
Last Part:

E---------------------------------------|
B---------------------------------------|
G---------------------------------------|
D---------------------------------------|
A--0-0-0-0-0-0-0-0-0-0-0-0-0-0-0-0-0-0--|
E--0-0-0-0-0-0-0-0-0-0-0-0-0-0-0-0-0-0--|

Thank you! Rate and Comment!
Tap to rate this tab
# A B C D E F G H I J K L M N O P Q R S T U V W X Y Z