The Chariot - The Two Dead Boys tab

The Two Dead Boys
The Chariot
The Fiancee
Drop B

Give me some cred. This was
hard to tab. Plz rate and comment!

C#----------------------|
G#----------------------|
E---10-10\----------7---|
B---10-10\----------7---|
F#--8--8-\--9-9-5---5-x-|
B-----------9-9-5-----x-|

C#----------------------------21-21-21\--|
G#--17-18--19-18-17-18--19-18-15-15-15\--|
E----------------------------------------|
B----------------------------------------|
F#---------------------------------------|
B----------------------------------------|

Keep repeating those two until:

C#-----------------------------------------------------|
G#-----------------------------------------------------|
E------------------------------------------------------|
B------------------------------------------------------|
F#--5-5-5-5-5-7-8\1-1-1-1-1-1-1-1-1-1-1-0-0-0-0-0-0-4--|
B---5-5-5-5-5-7-8\1-1-1-1-1-1-1-1-1-1-1-0-0-0-0-0-0-4--|

C#------------------------------------------------------------------|
G#------------------------------------------------------------------|
E-------------------------------------------------------------------|
B---------------------------------------------------------------12--|
F#--------------------------------------------------------------x---|
B---9bp0-0-9bp0-9bp0-9bp0-0-x-x-x-x-9bp0-0-9bp0-9bp0-9bp0-0-x-x-12--|

C#---------------------------|
G#---------------------------|
E----------------------------|
B----------------------------|
F#--7p0---------5p0----------|
B-------8p0-7p0-----6p0-5p0--|

This is the last part:
C#-----------------------------------------------------|
G#-----------------------------------------------------|
E------------------------------------------------------|
B------------------------------------------------------|
F#-------------------------------5-4-------------------|
B---15bp0-14bp0-3bp0-12bp0-10bp0-5-4-------------------|

Keep repeating that last part over and over.

END
Tap to rate this tab
 
# A B C D E F G H I J K L M N O P Q R S T U V W X Y Z