Song name
# A B C D E F G H I J K L M N O P Q R S T U V W X Y Z

The Chariot - Deaf Policemen tab

The Deaf Policemen
The Chariot
The Fianc'ee
Drop B (BF#BEG#C#)

C#----------------------------------------------|
G#----------------------------------------------|
E-----------------------------------------------|
B-----------------------------------------------|
F#--6p5p0-9-0-6p5p0-9-0-6-6-6p5p0-9-0-6p5p0-9-0-|
B---6p5p0-9-0-6p5p0-9-0-6-6-6p5p0-9-0-6p5p0-9-0-|

C#------------------------------------------------------------------|
G#------------------------------------------------------------------|
E---5-5-5-5-5-5-5-5-8-8-8-8-8-8-8-8---------------------------------|
B---5-5-5-5-5-5-5-5-8-8-8-8-8-8-8-8-6-6-6-6-6-6-6-6-6-6-6-6-6-6-6-6-|
F#--3-3-3-3-3-3-3-3-6-6-6-6-6-6-6-6-6-6-6-6-6-6-6-6-6-6-6-6-6-6-6-6-|
B-----------------------------------6-6-6-6-6-6-6-6-6-6-6-6-6-6-6-6-|

C#------------------------|
G#------------------------|
E-------------------------|
B---6---11-10-10-10h11p10-|
F#--6---------------------|
B---6---------------------|

C#------------------------------------------------------------------|
G#------------------------------------------------------------------|
E-------------------5-5-5-5-5-5-5-5---------------------------------|
B---6-6-6-6-6-6-6-6-5-5-5-5-5-5-5-5-3-3-3-3-3-3-3-3-3-3-3-3-3-3-3-3-|
F#--6-6-6-6-6-6-6-6-3-3-3-3-3-3-3-3-3-3-3-3-3-3-3-3-3-3-3-3-3-3-3-3-|
B---6-6-6-6-6-6-6-6-----------------3-3-3-3-3-3-3-3-3-3-3-3-3-3-3-3-|

(First Part)

C#--------------------------------------------------------|
G#--------------------------------------------------------|
E---------------------------------------------------------|
B---------------------------------------------------------|
F#--6-------6-------6-6-6-------6-------6------6-------6--|
B---6-------6-------6-6-6-------6-------6------6-------6--|

Thank You! Drop B is correct. Look at the live vids.
Tap to rate this tab
 
# A B C D E F G H I J K L M N O P Q R S T U V W X Y Z