The Chariot - Need tab

Need
The Chariot
Wars and Rumors and Wars
Drop B (BF#BEG#C#)

C#--------------------------|
G#--------------------------|
E---------------------------|
B---------------------------|
F#--0-x-6-6-3-3-0-0-3-3-3-3-|
B---0-x-6-6-3-3-0-0-3-3-3-3-|

C#-------------------------------------|
G#--------6-6-6-6-------------6-6-6-6--|
E--------------------------------------|
B--------------------------------------|
F#--6-3-0---------6-3-0-8-3-0----------|
B---6-3-0---------6-3-0-8-3-0----------|

C#--------------|
G#--------------|
E---Feedback?!?-|
B---------------|
F#--------------|
B---------------|

C#----------------------------------------|
G#----------------------------------------|
E-----------------------------------------|
B-----------------------------------------|
F#--0-6-6-6-6-0-0-6-6-6-6-0-0-6-6-6-6-0-0-|
B---0-6-6-6-6-0-0-6-6-6-6-0-0-6-6-6-6-0-0-|

Thanks!

Tap to rate this tab
 
# A B C D E F G H I J K L M N O P Q R S T U V W X Y Z