Song name
# A B C D E F G H I J K L M N O P Q R S T U V W X Y Z

The Chariot - They Faced Each Other tab

They Faced Each Other
The Chariot
The Fianc'ee (2007)
Drop B (B-F#-B-E-G#-C#)

Riff A
C#--------------------------|
G#--------------------------|
E---8\7-8-7-----------------|
B---x\x-x\x-----------------|
F#--6\5-6\5-6-6-6-5-5-5-4-4-|
B-----------6-6-6-5-5-5-4-4-|

Riff B
C#------------------------|
G#------------------------|
E---8-7-6-----------------|
B---x-x-x-----------------|
F#--6-5-4-6-6-6-5-5-5-4-4-|
B---------6-6-6-5-5-5-4-4-|

(Riff A)

Breakdown Riff
C#---------------------------------------------------------------------|
G#---------------------------------------------------------------------|
E----------------------------------------------------------------------|
B-----------------------------------------------------------------ect.-|
F#---------------------------------------------------------------------|
B---9999999999999999910101010101010101010101011111111111111121212------|

Riff C
C#----------|
G#----------|
E-----------|
B-----------|
F#--5-8-5-2-|
B---5-8-5-2-|

Riff D
C#---------------------------------|
G#----8---6---8---6------9----9----|
E-----8---6---8---6------9----9----|
B---7---7---7---7---7-10---10---10-|
F#--7---7---7---7---7-10---10---10-|
B---7---7---7---7---7-10---10---10-|

Riff E
C#--------6-------6--------8-------8-|
G#----8---6---8---6----8---8---8---8-|
E-----8-------8--------8-------8-----|
B---7---7---7---7----7---7---7---7---|
F#--7---7---7---7----7---7---7---7---|
B---7---7---7---7----7---7---7---7---|

Riff F
C#------------------------------------------------------|
G#----5---5-----8---8-----------------------------------|
E---6---6---6-8---8-------------------------------------|
B-------------------------8---6---8---6-------8----8----|
F#------------------------------------------------------|
B-----------------------7---7---7---7---7--10---10---10-|

(Riffs E & D Until End.)

Thank You! Tell me if this is correct! GIVE ME FEEDBACK!
Tap to rate this tab
 
# A B C D E F G H I J K L M N O P Q R S T U V W X Y Z