Song name
# A B C D E F G H I J K L M N O P Q R S T U V W X Y Z

The Chariot - The Fiancee tab

|-------------------------------------------------|
|------The Chariot-------------The Fianc'ee-------|
|-------------------------------------------------|

1.Back To Back
2.They Faced Each Other
3.They Drew Their Swords
4.And Shot Each Other
5.The Deaf Policeman
6.Heard This Noise
7.Then Came To Kill
8.The Two Dead Boys
9.Forgive Me Nashville
10.The Trumpet


Back to Back
Drop B

C#--/----------/-|
G#--/----------/-|
E---/----------/-|
B---/-Feedback-/-|
F#--/----------/-|
B---/----------/-|

C#--17-17--17-17-17--|
G#--x--x---x--x--x---|
E---15-15--15-15-15--|
B--------------------| x8 (I Think)
F#-------------------|
B--------------------|

"We Both Know...."
C#---------------------------17-17--17-17-17--|
G#---------------------------x--x---x--x--x---|
E----------------------------15-15--15-15-15--|
B---------------------------------------------| x8
F#--0--x-x---0--x-x---0--x-x------------------|
B---0--x-x---0--x-x---0--x-x------------------|

"Tonight!"
C#-----------------------------------|
G#-----------------------------------|
E------------------------------------|
B------------------------------------|
F#--5-(5)p0--------------------------|
B-----------5p0-7p0-5p0-7p0-5p0-7p0--|

"Be Grace...."
C--------------------------------------------|
G--------------------------------------------|
E--------------------------------------------|
B--------------------------------------------|
F--0--x-x---0--x-x---0-x-x---x-x-x-x-x-x-x-x-|
B--0--x-x---0--x-x---0-x-x---x-x-x-x-x-x-x-x-|

The rest is just feedback.

----


They Faced Each Other
Drop B (B-F#-B-E-G#-C#)

Riff A
C#--------------------------|
G#--------------------------|
E---8\7-8-7-----------------|
B---x\x-x\x-----------------|
F#--6\5-6\5-6-6-6-5-5-5-4-4-|
B-----------6-6-6-5-5-5-4-4-|

Riff B
C#------------------------|
G#------------------------|
E---8-7-6-----------------|
B---x-x-x-----------------|
F#--6-5-4-6-6-6-5-5-5-4-4-|
B---------6-6-6-5-5-5-4-4-|

(Riff A)

Breakdown Riff
C#---------------------------------------------------------------------|
G#---------------------------------------------------------------------|
E----------------------------------------------------------------------|
B-----------------------------------------------------------------ect.-|
F#---------------------------------------------------------------------|
B---9999999999999999910101010101010101010101011111111111111121212------|

Riff C
C#----------|
G#----------|
E-----------|
B-----------|
F#--5-8-5-2-|
B---5-8-5-2-|

Riff D
C#---------------------------------|
G#----8---6---8---6------9----9----|
E-----8---6---8---6------9----9----|
B---7---7---7---7---7-10---10---10-|
F#--7---7---7---7---7-10---10---10-|
B---7---7---7---7---7-10---10---10-|

Riff E
C#--------6-------6--------8-------8-|
G#----8---6---8---6----8---8---8---8-|
E-----8-------8--------8-------8-----|
B---7---7---7---7----7---7---7---7---|
F#--7---7---7---7----7---7---7---7---|
B---7---7---7---7----7---7---7---7---|

Riff F
C#------------------------------------------------------|
G#----5---5-----8---8-----------------------------------|
E---6---6---6-8---8-------------------------------------|
B-------------------------8---6---8---6-------8----8----|
F#------------------------------------------------------|
B-----------------------7---7---7---7---7--10---10---10-|

(Riffs E & D Until End.)

----


They Drew Their Swords
Drop B

E-----------------------------------|
B-----------------------------------|
G--8-8-8-8-8-8-8-8-8-8-8-8-8-8-7/11-|
D--8-8-8-8-8-8-8-8-8-8-8-8-8-8-7/11-|
A--6-6-6-6-6-6-6-6-6-6-6-6-6-6-5/9--|
E-----------------------------------|

E--------------|
B--------------|
G--------------|
D--------------|
A------4-------|
E--0-7---7b-0--|

E--0-----------------------------------------------------------------------|
B--0-----------------------------------------------------------------------|
G--0-------------feedback--------------------------------------------------|
D--0-----------------------------------------------------------------------|
A--0-----------------------------------------------------------------------|
E--0-----------------------------------------------------------------------|

Here we go:
The strange chords here are thrown around
a little, but I think you can get the right
ones at the right time. There's just some
variations of the timing.
E------------------------------------|
B-----------0-0-0--1-1-1--2-2-2------|
G-----------3-3-3--4-4-4--5-5-5------|
D--0---0-----------------------------|
A--0---0-----------------------------|
E--0---0-----------------------------|

E-------------|
B-----------4-|
G-----------7-|
D--2--2--x----|
A--2--2--x----|
E--2--2--x----|

----


And Shot Each Other
Drop B (1 and 1/2 steps down, drop d.)

Riff A
E---------------------------|
B----------------13--13-13--|
G----------------16--16-16--|
D---------------------------|  4x
A--0-0-0-0-0-0--------------|
E--0-0-0-0-0-0--------------|

Riff B
E-------------------|
B-------------------|
G---------8--8-8----|
D---------8--8-8----|  4x
A--3------6--6-6----|
E--3----------------|

E---------------------------|
B----------------13--13-13--|
G----------------16--16-16--|
D---------------------------|
A--0-0-0-0-0-0--------------|
E--0-0-0-0-0-0--------------|

E--------------------------------------------------|
B--------------------------------------------------|
G--------------------------------------------------|
D-----3-----5-----3-----5-----3-----5-----3-----5--|
A--3-----5-----3-----5-----3-----5-----3-----5-----|
E--------------------------------------------------|

E------|
B--2b--|
G--5b--|
D------|
A------|
E------|

Riff C
E-----------------------|
B-----11-----13--13-13--|
G-----14-----16--16-16--|
D-----------------------|  4x
A--0------0-------------|
E--0------0-------------|

REACH THE PLAGUE!!!!!!!!!!!!!!!!!!!!!!!!!!!!!!!!!!!!!

Riff D
E-------------------|
B-----13-----15-15--|
G-----16-----18-18--|
D-------------------|  4x
A--0------0---------|
E--0------0---------|

Not sure about this part:
E--------------|
B--------------|
G--------------|
D--12p0--------|  4x
A--------12p0--|
E--------------|

E------------|
B------------|
G------------|
D--3--5-6-5--|
A--3--5-6-5--|
E--3--5-6-5--|

(clean w/ tremelo)
E------|
B------|
G--14--|
D--14--|
A--12--|
E------|

Riff E
E-----------------------------------------------------------------|
B-----------------------------------------------------------------|
G--5-5-5-5-5-5-5-5-5-5-5-5--5--7--8--4-4-4-4-4-4-4-4-4-4-4-4-4-4--|
D--5-5-5-5-5-5-5-5-5-5-5-5--5--7--8--4-4-4-4-4-4-4-4-4-4-4-4-4-4--|
A--3-3-3-3-3-3-3-3-3-3-3-3--3--5--6--2-2-2-2-2-2-2-2-2-2-2-2-2-2--|
E-----------------------------------------------------------------|

E--------------------------------------|
B--------------------------------------|
G--------------------------------------|
D--------------------------------------|  4x
A--0---------0----------0----------0---|
E--0---------0----------0----------0---|

E--0-0-0-0-0-0-0-0-0-0-0-0-0-0-0-0-0-0-0-0-0-0-0-0--|
B--5-5-5-5-5-5-5-5-5-5-5-5-6-6-6-6-6-6-6-6-6-6-6-6--|
G---------------------------------------------------|
D---------------------------------------------------|
A---------------------------------------------------|
E---------------------------------------------------|

----


The Deaf Policemen
Drop B (BF#BEG#C#)

C#----------------------------------------------|
G#----------------------------------------------|
E-----------------------------------------------|
B-----------------------------------------------|
F#--6p5p0-9-0-6p5p0-9-0-6-6-6p5p0-9-0-6p5p0-9-0-|
B---6p5p0-9-0-6p5p0-9-0-6-6-6p5p0-9-0-6p5p0-9-0-|

C#------------------------------------------------------------------|
G#------------------------------------------------------------------|
E---5-5-5-5-5-5-5-5-8-8-8-8-8-8-8-8---------------------------------|
B---5-5-5-5-5-5-5-5-8-8-8-8-8-8-8-8-6-6-6-6-6-6-6-6-6-6-6-6-6-6-6-6-|
F#--3-3-3-3-3-3-3-3-6-6-6-6-6-6-6-6-6-6-6-6-6-6-6-6-6-6-6-6-6-6-6-6-|
B-----------------------------------6-6-6-6-6-6-6-6-6-6-6-6-6-6-6-6-|

C#------------------------|
G#------------------------|
E-------------------------|
B---6---11-10-10-10h11p10-|
F#--6---------------------|
B---6---------------------|

C#------------------------------------------------------------------|
G#------------------------------------------------------------------|
E-------------------5-5-5-5-5-5-5-5---------------------------------|
B---6-6-6-6-6-6-6-6-5-5-5-5-5-5-5-5-3-3-3-3-3-3-3-3-3-3-3-3-3-3-3-3-|
F#--6-6-6-6-6-6-6-6-3-3-3-3-3-3-3-3-3-3-3-3-3-3-3-3-3-3-3-3-3-3-3-3-|
B---6-6-6-6-6-6-6-6-----------------3-3-3-3-3-3-3-3-3-3-3-3-3-3-3-3-|

(First Part)

C#--------------------------------------------------------|
G#--------------------------------------------------------|
E---------------------------------------------------------|
B---------------------------------------------------------|
F#--6-------6-------6-6-6-------6-------6------6-------6--|
B---6-------6-------6-6-6-------6-------6------6-------6--|

----


Heard This Noise
Drop B (1 and 1/2 steps down, Drop D)

E---------------------|
B-----------16--16b---|
G-----------19--19b---|
D--0---0-x------------|
A--0---0-x------------|
E--0---0-x------------|

("KC Wolf" Bass)

Then You Play Along:
E------------------------------|
B------------------------------|
G------------------------------|
D-------4-4--------------------|
A--0-0--2-2--5-5--0-0-1-1-1-1--|
E--0-0-------5-5--0-0-1-1-1-1--|

Go back to first part, then

E----------------------------------------------------------------|
B----------------------------------------------------------------|
G----------------------------------------------------------------|
D----------------------------------------------------------------|
A--0------------0------------0--------0--------0--------0--------|
E--0------------0------------0--------0--------0--------0--------|

----


Then Came To Kill
Drop B

(0:42 - 1:04)
Gradually Bend the 5's
E--0-0-0-0-0-0-0-0-0-0-0-0-0-0-0-0-0------0-0-0-0-0--|
B--5-5-5-5-5-5-5-5-5-5-5-5-5-4-4-4-4-9-9--5-5-5-5-5--|
G----------------------------------------------------|
D----------------------------------------------------|
A----------------------------------------------------|
E----------------------------------------------------|

(1:04 - 1:19)
E-------------------|
B-------------------|
G--5-5\-------------|
D--x-x\-------------|
A--3-3\-x-x---------|
E-------x-x--0-0-0--|

(1:19 - 1:30)
E----------------------------------------------|
B-----4----------4----------4-----13-----------|
G-----7----------7----------7-----16-----------|
D----------------------------------------------|
A--1-----1-3-2-1---------------0------3--2--1--|
E--1-----1-3-2-1----0-0-0-0----0------3--2--1--|

(1:31 - 1:46)
E-------------------------------|
B---------------------------6-5-|
G---------3-4-5---------6-5-----|
D-------------------------------|
A--0-0-0---------0-0-0----------|
E--0-0-0---------0-0-0----------|

(1:47 - 2:22)
E----------------------------------------------------------------------|
B----------------------------------------------------------------------|
G--15-15/16--12-12-12-14-14-14-10-13-9---5-5\-----------5-5\-----------|
D----------------------------------------x-x\-----------x-x\-----------|
A----------------------------------------3-3\--0-0-0-0--3-3\--0-0-0-0--|
E----------------------------------------------0-0-0-0--------0-0-0-0--|

(2:23 - 2:24)
E------------------------|
B------------------------|
G------------------------|
D--13-13-13-13-13-13-13--|
A--11-11-11-11-11-11-11--|
E------------------------|

(2:25 - 2:55)
E--------------------------------------------------------------------|
B--------------------------------------------------------------------|
G--5----------------------------------4------------------------------|
D--5----------------------------------4------------------------------|
A--3----------------------------------2------------------------------|
E--------------------------------------------------------------------|

(2:55 - 2:59)
E----------------------|
B----------------------|
G----------------------|
D----------------------|
A--0-------------------|
E--0-------------------|

(3:00 - 3:29)
E---------------------------------------------------|
B---------------------------------------------------|
G--5-----------4---------5-----------4------5-------|
D--5-----------4---------5-----------4------5-------|
A--3-----------2----2----3-----------2------3-------|
E-------------------2-------------------------------|

(3:30 - 3:33)
E----------------------|
B----------------------|
G----------------------|
D----------------------|
A--0-------------------|
E--0-------------------|

(3:34 - 3:57)
E---------------------------------------------------|
B--7-7-7-7-7-7-8-8-8-8-8-8--------------------------|
G---------------------------------------------------|
D---------------------------------------------------|
A--------------------------2-2-2-2-2-2-2-2-2-2-2-2--|
E--------------------------2-2-2-2-2-2-2-2-2-2-2-2--|

E---------------------------------------------------|
B--7-7-7-7-7-7-8-8-8-8-8-8--------------------------|
G---------------------------------------------------|
D---------------------------------------------------|
A--------------------------2-2-2-2-2-2-3-3-3-3-3-3--|
E--------------------------2-2-2-2-2-2-3-3-3-3-3-3--|

(3:58 - 4:02)
E-----------------------------|
B-----------------------------|
G-----------------------------|
D-----------------------------|
A--0-0-0-0-0-0-0-0-0-0-0-0-0--|
E--0-0-0-0-0-0-0-0-0-0-0-0-0--|

(4:03 - 4:30)
E--0-0-0-0-0-0-0-0-0-0-0-0-0-0-0-0-0-0-0-0-0-0-0-0-0-0-0--|
B--5-5-5-5-5-5-5-5-5-5-5-5-5-5-5-5-5-5-5-5-5-5-5-5-5-5-5--|
G---------------------------------------------------------|
D---------------------------------------------------------|
A---------------------------------------------------------|
E---------------------------------------------------------|

----


The Two Dead Boys
Drop B

C#----------------------|
G#----------------------|
E---10-10\----------7---|
B---10-10\----------7---|
F#--8--8-\--9-9-5---5-x-|
B-----------9-9-5-----x-|

C#----------------------------21-21-21\--|
G#--17-18--19-18-17-18--19-18-15-15-15\--|
E----------------------------------------|
B----------------------------------------|
F#---------------------------------------|
B----------------------------------------|

Keep repeating those two until:

C#-----------------------------------------------------|
G#-----------------------------------------------------|
E------------------------------------------------------|
B------------------------------------------------------|
F#--5-5-5-5-5-7-8\1-1-1-1-1-1-1-1-1-1-1-0-0-0-0-0-0-4--|
B---5-5-5-5-5-7-8\1-1-1-1-1-1-1-1-1-1-1-0-0-0-0-0-0-4--|

C#------------------------------------------------------------------|
G#------------------------------------------------------------------|
E-------------------------------------------------------------------|
B---------------------------------------------------------------12--|
F#--------------------------------------------------------------x---|
B---9bp0-0-9bp0-9bp0-9bp0-0-x-x-x-x-9bp0-0-9bp0-9bp0-9bp0-0-x-x-12--|

C#---------------------------|
G#---------------------------|
E----------------------------|
B----------------------------|
F#--7p0---------5p0----------|
B-------8p0-7p0-----6p0-5p0--|

This is the last part:
C#-----------------------------------------------------|
G#-----------------------------------------------------|
E------------------------------------------------------|
B------------------------------------------------------|
F#-------------------------------5-4-------------------|
B---15bp0-14bp0-3bp0-12bp0-10bp0-5-4-------------------|

Keep repeating that last part over and over.

END

----


Forgive Me Nashville
Drop B

This is mostly correct. If
there's an error, just comment
and tell me.

E--------------------|
B--------------------|
G--7-----------------|
D--7-6-6-6--4-5-4-0--|
A--5-6-6-6--4-5-4-0--|
E----6-6-6--4-5-4-0--|

Then:

E--------------------------------|
B--------------------------------|
G--------------------------------|
D-----------0--0------------10b--|
A-----------0--0------------10b--|
E--8-7-6-0--0--0--8-7-6-0-x-10b--|

Go back to the first part; Kind
of a mix and match of that riff,
I think you can figure it out.
Last Part:

E---------------------------------------|
B---------------------------------------|
G---------------------------------------|
D---------------------------------------|
A--0-0-0-0-0-0-0-0-0-0-0-0-0-0-0-0-0-0--|
E--0-0-0-0-0-0-0-0-0-0-0-0-0-0-0-0-0-0--|

----


The Trumpet

Choir Music.




-------------------------------------------------------------
Remember, all these tabs were tabbed by me. If you want
to find an individual song for printing, each tab is available
on Ultimate-Guitar.com. Or, if you want to contact me about
a song you want tabbed by The Chariot, Norma Jean, The Devil
Wears Prada, Buckethead, or any other Metal/Rock band, visit
my page on UG, jamesaaronfinch. Or shoot me an E-mail at 
jamesaaronfinch@yahoo.com. Thank You for taking an intrest in
my tabs.

Copyright 2010



Symbols
b - Bend
p - Pull Off
* - Pinch Harmonic
h - Hammer-on
x - Mute
() - Hold out
\ - slide down
/ - slide up

--------------------------------------------------------------

To find out more about The Chariot, visit:

www.thechariot.com

--------------------------------------------------------------

Tap to rate this tab
 
# A B C D E F G H I J K L M N O P Q R S T U V W X Y Z