The Chariot - Calvin Mackenzie tab

Calvin Mackenzie
The Chariot
Long Live
Drop B (BF#BEG#C#)

Riff A
C#------------------|
G#------6b----------|
E-------6b----------|
B---5---------------| x8
F#--5--------0-1-0--|
B---5--------0-1-0--|

Interlude
C#----------------------------|
G#----------------------------|
E-----------------------------|
B----8------------------------|
F#--10------------------------|
B----0------------------------|

(Riff A x8)

Riff B
C#--0----0----0----0----0-----------------|
G#--0----0----0----0----0-----------------|
E---0----0----0----0----0-----------------|
B---0----0----0----0----0---(Feedback)----|
F#--0----0----0----0----0-----------------|
B---0----0----0----0----0-----------------|

Riff C
C#-------------------------------------------------------------------------|
G#-------------------------------------------------------------------------|
E--------------------------------------------------------------------------|
B--------------------------------------------------------------------------|
F#-------------------------------------------------------------------------|
B---0h5h8p0h5h8p0-4--4-4-4-4-4-4-4-0h5h8p0h5h8p0-12--12-12-12-11-11-11-11--|

3rd and 4th time Guitar two switches to this. (Figure out the strumming here)
C#-------------------------------------------------------------------------|
G#-----------------------------------------------15-----------14-----------|
E---12------------11---------------12------------14-----------13-----------|
B---12------------11---------------12------------12-----------11-----------|
F#--10------------9----------------10--------------------------------------|
B--------------------------------------------------------------------------|

Breakdown
C#------------------------------------------------------------------------|
G#------------------------------------------------------------------------|
E-------------------------------------------------------------------------|
B-------------------------------------------------------------------------| 
F#--5---4---1-------------------------------5---1---7--0------------------|
B---5---4---1-------------------------------5---1---7--0------------------|

(Riff A x8)
(Abrupt Stop LOL)

C#--0-------------------------------------------|
G#--0-------------------------------------------|
E---0-------------------------------------------|
B---0-------------------------------------------|
F#--0-------------------------------------------|
B---0-------------------------------------------|

(ATLANTA, ATLANTA. THAT'S MY HOMETOWN!)

Thanks!
Tap to rate this tab
 
# A B C D E F G H I J K L M N O P Q R S T U V W X Y Z