Song name
# A B C D E F G H I J K L M N O P Q R S T U V W X Y Z

The Chariot - Robert Rios tab

-----------------------------------------------------------------
Robert Rios - The Chariot
-----------------------------------------------------------------
Tabbed by: Jake Miller (millarso)
Email: millarso2.0@gmail.com
Tuning: Drop B

Section 1 (x8)
Both Guitars
Db|----------------------------------------|
Ab|----------------------------------------|
E |-9-9-9--9--9-9-9--9---------------------|
B |-x-x-x--x--x-x-x--x-7-7-7-7-7-7-7-7-7-7-|
Gb|-8-8-8--8--8-8-8--8-7-7-7-7-7-7-7-7-7-7-|
B |--------------------7-7-7-7-7-7-7-7-7-7-|

Section 2
Both Guitars
Db|------------------------------------------------------------------------------|
Ab|------------------------------------------------------------------------------|
E |-10-------1010101010s9-9-9-9s10101010s9-9-9-9s10101010s9-9-9-9s10101010s9-9-9-|
B |--8--------8-8-8-8-8s7-7-7-7s-8-8-8-8s7-7-7-7s-8-8-8-8s7-7-7-7s-8-8-8-8s7-7-7-|
Gb|--8-(x32)--8-8-8-8-8s7-7-7-7s-8-8-8-8s7-7-7-7s-8-8-8-8s7-7-7-7s-8-8-8-8s7-7-7-|
B |--8--------8-8-8-8-8s7-7-7-7s-8-8-8-8s7-7-7-7s-8-8-8-8s7-7-7-7s-8-8-8-8s7-7-7-|

Section 1 (x4)

Section 3 (x2)
Both Guitars
Db|----------------------------------|
Ab|----------------------------------|
E |-5s7-7-7-7------------------------|
B |-5s7-7-7-7--6-6-6-6-6-6-6-6-6-6---|x3
Gb|-3s5-5-5-5--6-6-6-6-6-6-6-6-6-6---|
B |------------6-6-6-6-6-6-6-6-6-6---|

Db|----------------------------------|
Ab|----------------------------------|
E |-5s7-7-7-7------------------------|
B |-5s7-7-7-7--6-6-6-6-6-6-6---------|
Gb|-3s5-5-5-5--6-6-6-6-6-6-6-(pause)-|
B |------------6-6-6-6-6-6-6---------|

Section 4
Guitar 1
Db|------------------------------------------------6p0---5p0----|
Ab|---------------------------------------------------7p0---6p0-|
E |-------------------------------------------------------------|
B |-/6-6-6-6--/6-6-6-6----------/6-6-6-6--/6-6-6-6--------------|
Gb|-/6-6-6-6--/6-6-6-6----5-6---/6-6-6-6--/6-6-6-6--------------|
B |-/6-6-6-6--/6-6-6-6--6-----7-/6-6-6-6--/6-6-6-6--------------|

Guitar 2
Db|----------------------------------------------------------|
Ab|----------------------------------------------------------|
E |----------------------------------------------------------|
B |-/6-6-6-6--/6-6-6-6----------/6-6-6-6--/6-6-6-6-----------|
Gb|-/6-6-6-6--/6-6-6-6----5-6---/6-6-6-6--/6-6-6-6----5-6----|
B |-/6-6-6-6--/6-6-6-6--6-----7-/6-6-6-6--/6-6-6-6--6-----7--|

Guitar 1
Db|------------------------------------------------6p0---5p0----|
Ab|---------------------------------------------------7p0---6p0-|
E |-------------------------------------------------------------|
B |-------------------------------------------------------------|
Gb|-----------------------5-6-----------------------------------|
B |-/6-6-6-6--/6-6-6-6--6-----7-/6-6-6-6--/6-6-6-6--------------|

Guitar 2
Db|----------------------------------------------------------|
Ab|----------------------------------------------------------|
E |----------------------------------------------------------|
B |----------------------------------------------------------|
Gb|-----------------------5-6-------------------------5-6----|
B |-/6-6-6-6--/6-6-6-6--6-----7-/6-6-6-6--/6-6-6-6--6-----7--|

Section 5
Guitar 1 (Fuzzy, this might be the bass too... not sure)
Db|-------------------------------|
Ab|-------------------------------|
E |-------------------------------|
B |-------------------------------|(x4 with slight variations)
Gb|-------------------------------|
B |-/6-6-6-6-0-0-/6-6-6-6-6-6-0-0-|

Section 6
Guitar 1
Db|---------------------------------------------------------------|
Ab|---------------------------------------------------------------|
E |---------------------------------------------------------------|
B |-5b6--5b7----5b6--5b7----(repeat-until-end)--------------------|
Gb|-5b6--5b7----5b6--5b7------------------------------------------|
B |---------------------------------------------------------------|

Guitar 2
Db|---------------------------------------------------------------|
Ab|----------------------4---4-4---4---4-4---4--------------------|
E |----------------------7b8-8-8---7b8-8-8---8-(repeat-until-end)-|
B |---------------------------------------------------------------|
Gb|---------------------------------------------------------------|
B |---------------------------------------------------------------|

The Chariot are always difficult to tab so cut me some slack, especially with Section 4.
Everything should get you pretty close though.
Please rate and comment.
Thanks,
millarso
Tap to rate this tab
# A B C D E F G H I J K L M N O P Q R S T U V W X Y Z