Song name
# A B C D E F G H I J K L M N O P Q R S T U V W X Y Z

The Chariot - Tongues tab

Central riff

|---------------------------------------------------------------------|
|---------------------------------------------------------------------|
|---------------------------------------------------------------------|
|---------------------------------------------------------------------|
|--------15--------------------------5--------------------------------|
|-0-12-15----12-10-8--7--5-8-5-7-------8-5-7-5-4-1--1-1-3-4-4-4-4-----|

Descant
I don't know if their guitar is just longer than mine, or if they just tuned
up the 1st string, but I don't the exact fingerings. Maybe just bend it to
get it higher? Regardless, it's a tritone (augmented 4th/diminished 5th), so
wherever you choose to move it it's seven frets (three whole steps) apart.

|----22p16-22p16-and further up---------------------------------------|
|---------------------------------------------------------------------|
|---------------------------------------------------------------------|
|---------------------------------------------------------------------|
|---------------------------------------------------------------------|
|---------------------------------------------------------------------|

Verse is just: 
rhythm on the sixteenth notes

|---------------------------------------------------------------------|
|---------------------------------------------------------------------|
|---------------------------------------------------------------------|
|---10-12-12-12-12-12-12-12-12-12-12-12-12-12-12-12-------------------|
|---10-12-12-12-12-12-12-12-12-12-12-12-12-12-12-12-------------------|
|---10-12-12-12-12-12-12-12-12-12-12-12-12-12-12-12-------------------|

Then at the end of the verse,

|---------------------------------------------------------------------|
|---------------------------------------------------------------------|
|---------------------------------------------------------------------|
|----1-1-1-3-4-4-4-4--------------------------------------------------|
|----1-1-1-3-4-4-4-4--------------------------------------------------|
|----1-1-1-3-4-4-4-4--------------------------------------------------|

That's the basic jist of the song. After that, it fades into this piano bit
that I won't bother with here, and returns to the central riff. Which 
admittedly, just feels good in the base of my spine when I play it.
Tap to rate this tab
# A B C D E F G H I J K L M N O P Q R S T U V W X Y Z