Song name
# A B C D E F G H I J K L M N O P Q R S T U V W X Y Z

The Chariot - Tongues tab

-----------------------------------------------------------------
Tongues -The Chariot
-----------------------------------------------------------------
Tabbed by: millarso (Jake Miller)
Email: millarso2.0@gmail.com
Tuning: Drop B

Section 1
Db|-----------------------------------------------------------------|
Ab|-----------------------------------------------------------------|
E |-----------------------------------------------------------------|
B |-----------------------------------------------------------------|x4
Gb|---------15-------------------------5----------------------------|
B |-0-12-15----15-12-10-8--7--5-8-5-7----8-5-7-5-4-1--1-1-3-4-4-4-4-|

Section 2
Db|-------------|
Ab|-------------|
E |-------------|
B |-------------|x3
Gb|-------------|
B |-10-12-(x31)-|

The 3rd repeat has one of the guitars play this over top Section 2...
Db|-----------------------------------------------------------|
Ab|-----------------------------------------------------------|
E |-----------------------------------------------------------|
B |-----------------------------------------------------------|
Gb|-------------------10-12-12-12-12-12-12-12-12-12-----------|
B |-10-12-12-12-12-12-------------------------------12-(x15)--|

NOTE: The numbers in () are number of times in a row that you repeat that 12 fret only

Db|------------------------------|
Ab|------------------------------|
E |------------------------------|
B |------------------------------|
Gb|------------------------------|
B |-10-12-(x22)-1--1-1-3-4-4-4-4-|

Section 3
Lead Guitar (only possible in higher tuning or 24 frets)
Db|-24-------24----24-----24----24----24b25-b19r18-(unsure...)------12--15-12--15-13b-|
Ab|-----24b25---b26----b26---b26---b26-------------------------8/10-------------------|
E |-----------------------------------------------------------------------------------|
B |-----------------------------------------------------------------------------------|
Gb|-----------------------------------------------------------------------------------|
B |-----------------------------------------------------------------------------------|
NOTE: Bend the 13 up until it starts to lose it starts to die out
NOTE 2: Since the 8/10 sounds like a slide, its possible that this solo is using a slide
     at the very bottom of the neck. If this is true, you are better off just freestyling
       it because it is a hard to replicate solo.

Rhythm Guitar
Db|-----------------------------------------------------------------|
Ab|-----------------------------------------------------------------|
E |-----------------------------------------------------------------|
B |-----------------------------------------------------------------|x2
Gb|---------15-------------------------5----------------------------|
B |-0-12-15----15-12-10-8--7--5-8-5-7----8-5-7-5-4-1--1-1-3-4-4-4-4-|

Section 4
Db|----------------------------------------------------------------------------------------------|
Ab|----------------------------------------------------------------------------------------------|
E |----------------------------------------------------------------------------------------------|
B |----------------------------------------------------------------------------------------------|
Gb|---------------------------10-12-12-12-12-12-12-12-12-12--------------------------------------|
B |-0-(x64)-10-12-12-12-12-12-------------------------------0-(x55)-0--0--1-3-3-0-0-0-(let-ring)-|

BREAK FOR PIANO, THEN REPEAT SECTION 1 AND END WITH
Db|--------------|
Ab|--------------|
E |--------------|
B |-0------------|
Gb|-0-(let-ring)-|
B |-0------------|

I'm not sure if that is how they play that main riff, but that is most of the song. It's better
to just feel the rhythm out in those repeated note sections because they get long and it 
is easy to
lose your place without vocals. I have no clue with that solo. The Chariot is a cruel mistress.
Please rate & comment.
Thanks,
millarso

| /  slide up
| \  slide down
| h  hammer-on
| p  pull-off
| ~  vibrato
| TP tremolo picking
Tap to rate this tab
# A B C D E F G H I J K L M N O P Q R S T U V W X Y Z