Song name
# A B C D E F G H I J K L M N O P Q R S T U V W X Y Z

The Chariot - Dialogue With A Question Mark tab

Help us improve GuitareTab! Take a short survey!
hey this is my first tab i have ever put on a site, ever. so if it rocks and sounds 
then have fun cause it is. if you see the chariot play then play like them when you play 
song cause its a rush. itll make ya shake. david mcdaniels bye bye



C ----------------------000--------------------------000-00000------|
G-----------------------000--------------------------000-00000------|
C-----------------------000--------------------------000-00000------|
F----7p06p0---7777-7777-----7777--7p06p0---7777-7777-----------7-12-|
A-------------4444-4444-----4444-----------4444-4444-----------4-9--|
D-------------------------------------------------------------------|

C---------------------------00--------------------0/-0/-0/-0/-16b-|
G---------------------------00--------------------0/-0/-0/-0/-----|
C---------------------------00--------------------0/-0/-0/-0/-----|
F---7777-7777-777-6666-6666----5555-5555-7---6p0------------------|
A---4444-4444-444-3333-3333----2222-2222--4p0---6-----------------|
D-----------------------------------------------------------------|

C--0------0----0------0----0------0----0------0---------0---------|
G--0------0----0------0----0------0----0------0---------0---------|
C--0------0----0------0----0------0----0------0---------0---------|
F----1515---15---1515---15---1515---15---1515---151515----181818b-|
A----1212---12---1212---12---1212---12---1212---121212----151515b-|
D-----------------------------------------------------------------|

C--0-----0---0------0-----0---0-----------0-----0---0---0-----0---0---|
G--0-----0---0------0-----0---0-----------0-----0---0---0-----0---0---|
C--0-----0---0------0-----0---0-----------0-----0---0---0-----0---0---|
F----766---7---7-7b---766---7---7-7p0-6p0---766---7---7---766---7---7-|
A----433---4---4------433---4---4-----------433---4---4---433---4---4-|
D---------------------------------------------------------------------|

C--0----0-----0----0--------22-2-2-22-2-2--22-2-2-22-2-2--22-2-2-22-2-2-----|
G--0----0-----0----0-------1--1-1-1--1-1--1--1-1-1--1-1--1--1-1-1--1-1------|
C--0----0-----0----0--------------------------------------------------------|
F----77---777---77---777----------------------------------------------------|
A----44---444---44---444----------------------------------------------------|
D---------------------------------------------------------------------------|

C---22-2-2-22-2-2-22-2-2-22-2-2-2b-22-2-2-22-2-2--6-5---22-2-2-22-2-2----|
G--1--1-1-1--1-1-1--1-1-1--1-1-1--1--1-1-1--1-1---6-5--1--1-1-1--1-1-----|
C------------------------------------------------------------------------|
F------------------------------------------------------------------------|
A------------------------------------------------------------------------|
D------------------------------------------------------------------------|

C--22-2-2-22-2-2--22-2-2-22-2-2-/\/\/\/\--22-2-2-22-2-2--6-5-----22-2-2-|
G-1--1-1-1--1-1--1--1-1-1--1-1--/\/\/\/\-1--1-1-1--1-1---6-5-1--1--1-1--|
C------------------------------------------------------------1----------|
F------------------------------------------------------------1----------|
A-----------------------------------------------------------------------|
D-----------------------------------------------------------------------|
Related for Dialogue With A Question Mark tab