Song name
# A B C D E F G H I J K L M N O P Q R S T U V W X Y Z

The Chariot - And Shot Each Other tab

Title: And Shot Each Other (previously known as Elvish Presley)
Artist: The Chariot
Album: The Fiancee

Awesome song by an awesome band, and fairly easy to play...Enjoy!

C#-------------------------|
G#---------13--13-13-------|
E----------16--16-16-------|
B--------------------------|   4x
F#--00000------------------|
B---00000------------------|

C#-------------------|
G#-------------------|
E-------8--8-8-------|
B-------x--x-x-------|    4x
F#--3---6--6-6-------|
B---3----------------|

C#-------------------------|
G#---------13--13-13-------|
E----------16--16-16-------|
B--------------------------|   4x
F#--00000------------------|
B---00000------------------|

C#-------------|
G#-------------|
E--------------|
B--------------|   4x
F#--3/8\5/10---|
B--------------|

C#----------|
G#-----2b---|
E------5b---|
B-----------|
F#--0-------|
B---0-------|

C#------------------------|
G#-----11-----13-13-13----|
E------14-----16-16-16----|
B-------------------------|     4x
F#--0------0--------------|
B---0------0--------------|

Pause for the greatest scream ever recorded!

C#------------------------|
G#-----13-----15-15-------|
E------16-----18-18-------|
B-------------------------|   8x
F#--0------0--------------|
B---0------0--------------|

C#---------------------------------------------|
G#---------------------------------------------|
E----------------------------------------------|
B---12p0------12p0------12p0-------------------|
F#-------10p0------10p0------10p0--3-5-6-5-----|
B----------------------------------3-5-6-5-----|

clean, tremolo (most likely background track)
C#---------|
G#---------|
E---14~----|
B---14~----|
F#--12~----|
B----------|

Figure out the strumming in this part
C#-------------------------------------------------------------------------|
G#-------------------------------------------------------------------------|
E-------------------16\12/18-------16\12/18-------16\12/18-------16\12/18--|
B---5---78-4---------x\-x/-x--------x\-x/-x--------x\-x/-x--------x\-x/-x--|
F#--3---56-2-----0--14\10/16----0--14\10/16----0--14\10/16----0--14\10/16--|
B----------------0--------------0--------------0--------------0------------|


Well, there it is...I'm pretty sure it's accurate...Some of it I got from live video, 
watching them play it live in concert twice...the rest I picked up by ear
Tap to rate this tab
# A B C D E F G H I J K L M N O P Q R S T U V W X Y Z