Song name
# A B C D E F G H I J K L M N O P Q R S T U V W X Y Z

The Chariot - Yanni Depp tab

For those of you wondering, "Yanni Depp" is the opening track to The Chariot's "Unsung 
released in December of
2005.  Unsung was The Chariot's follow-up (mid release) to "Everything Is Alive, 
Is Breathing, Nothing Is Dead,
and Nothing Is Bleeding" released in November 2004.


As far as tuning goes, most of the Unsung demo was done in Drop B. (B Gb B E Ab Db) But 
it however you see fit.


Intro:
"Blank Stare!"
Db|--------------------------------|
Ab|------17-17---------18--x/--14--|
E |------20-20---------21--x/--17--|
B |--0/p--------0/p-0--------------| Repeat
Gb|--0/p--------0/p-0--------------|
B |--0/p--------0/p-0--------------|
                    .

Pre Verse:
"All we are, are crocodiles."
Db|----------------------|
Ab|----------------------|
E |--2-2-----3---5-5-5/--| Repeat
B |--2-2-----2---4-4-4/--|
Gb|--0-0-x-x-1-x-3-3-3/--|
B |----------------------|


*I'm still working on the next few parts.  If you have any written out and want me to 
them, message me.


Break Down:
"You're drowning in ankle deep water!"
Guitar I
Db|------------------------------------------------------------------------|
Ab|------------------------------------------------------------------------|
E |------------------------------------------------------------------------|
B |-0-----------------------------------------------------------x-1~---3~--|
Gb|-0-------------------0-0-0-0---------------------------------x-1~---3~--|
B |-0-------------------0-0-0-0---------------------------------x-1~---3~--|
    .                   . . . .

Guitar II
Db|------------------------------------------------------------------------|
Ab|---1-1-1-1-1-1-1-1-1-1-1-1-1-1-1-1-1-1-1-1-1-1-1-1-1-1-1-1-1------------|
E |---4-4-4-4-4-4-4-4-4-4-4-4-4-4-4-4-4-4-4-4-4-4-4-4-4-4-4-4-4------------|
B |---------------------------------------------------------------1~---3~--|
Gb|---------------------------------------------------------------1~---3~--|
B |---------------------------------------------------------------1~---3~--|

Guitar I
Db|------------------------------------------------------------------------|
Ab|------------------------------------------------------------------------|
E |------------played-with-a-stuttered-feel--------------------------------|
B |-0-----------------------------------------------------------x-1~---3~--|
Gb|-0-------------------0-0-0-0---------------------------------x-1~---3~--|
B |-0-------------------0-0-0-0---------------------------------x-1~---3~--|
    .                   . . . .

Guitar II
Db|------------------------------------------------------------------------|
Ab|---1---1---1---1---1---1---1---1---1---1---1---1---1---1---1------------|
E |---4---4---4---4---4---4---4---4---4---4---4---4---4---4---4------------|
B |---------------------------------------------------------------1~---3~--|
Gb|---------------------------------------------------------------1~---3~--|
B |---------------------------------------------------------------1~---3~--|


Notes:

  |--x/-|
  |--x/-| = mute note, slide down
  |--x/-|

  |-0/p-|
  |-0/p-| = quick slide up neck then pull off
  |-0/p-|

  |--0--|
  |--0--| = palm mute
  |--0--|
     .
Tap to rate this tab
# A B C D E F G H I J K L M N O P Q R S T U V W X Y Z