Song name
# A B C D E F G H I J K L M N O P Q R S T U V W X Y Z

The Checks - There Is A Field tab

-------------------------------------------------------------------------------
			 There is a field - The Checks
-------------------------------------------------------------------------------
Tabbed by: Josh O		


This is my very first tab and i love this band so i thought id have a go at 
tabbing it out my self. Dont know how accurate it is but sounds ok for me.
Its only the intro , and listen to the song to get the rhythm.

e|-----7----------7----7------------5--------5---------5-----3---3-----------|x3
B|-----8--x--x----8----8--x-x-------5--x-x---5------x--5--x--3---3-----------|
G|-----9--x--x----9----9--x-x-------6--x-x---6------x--6--x--4---4-----------|
D|-----9--x--x----9----9--x-x---7---7--x-x---7---7--x--7--x--5---5-----------|
A|-----7----------7----7--------7---7--------7---7-----7-----5---5-----------|
E|--0-----------0---------------5---5--------5---5-----5-----3---3-----------|

e|------7------------7--7--------5-------------------------------------------|
B|------8---x--x-----8--8--x-x---5-------------------------------------------|
G|------9---x--x-----9--9--x-x---6-------------------------------------------|
D|------9---x--x-----9--9--x-x---7-------------------------------------------|
A|------7---x--x-----7--7--x-x---7-------------------------------------------|
E|---0-------------0-------------5-------------------------------------------|

   woah oh    oh woah oh  woah oho   woah oho




e|---------------------------------------------------------------------------|x3
B|---5--7-----3--5---2----3--3p2po-2--3--3p2po-2---3----3p2po----------------|
G|------------------------------------------------------------0--------------|
D|---------------------------------------------------------------------------|
A|---------------------------------------------------------------------------|
E|---------------------------------------------------------------------------|

e|---------------------------------------------------------------3p2---------|
B|---5--7-----3--5---2----3--3p2po-2--3--3p2po-2---3----3p2po--3------\5-----|
G|---------------------------------------------------------------------------|
D|---------------------------------------------------------------------------|
A|---------------------------------------------------------------------------|
E|---------------------------------------------------------------------------|




| /  slide up
| \  slide down
| h  hammer-on
| p  pull-off
| ~  vibrato
| +  harmonic
| x  Mute note
===============================================================================
Tap to rate this tab
# A B C D E F G H I J K L M N O P Q R S T U V W X Y Z