Guitaretab - guitar tabs
Song name
# A B C D E F G H I J K L M N O P Q R S T U V W X Y Z

The Checks - What You Heard tab

Artist: The Checks
Song: What You Heard

Intro:
Yeahhh!

Verse Riff:
e|------------0---------------|
b|------------2---------------|
g|--7b-5------2---------------|
D|-------7-7--2---------------|
A|------------0---------------|
E|----------------------------|

Verse:

I feel like a motor police parade
I feel like a motor police parade
I'm sitting slim in the summer shade
I'm sitting slim in the summer shade
[ Tab from: http://www.guitaretab.com/t/the-checks/95470.html ]
Chorus:
e|---------------------------|
b|---------------------------|
g|--------5------------------|
D|--55555-5-77---------------|
A|--55555-3-77---------------|
E|--33333---55---------------|

Chorus:
Drunk mans word is what you heard
Drunk mans word is what you heard
Drunk mans word is what you heard
Drunk mans word is what you heard

Verse 2:
Warm tooth in a bloody cage
Warm tooth in a bloody cage
Small shark in a muddy bay
Small shark in a muddy bay


www.thechecks.net
Related for What You Heard tab