Guitaretab - guitar tabs
Song name
# A B C D E F G H I J K L M N O P Q R S T U V W X Y Z

The Checks - Tired From Sleeping tab

-------------------------------------------------------------------------------
			     TIRED FROM SLEEPING - The Checks
-------------------------------------------------------------------------------
Tabbed by: Mono
Email: bowdowntothemono@hotmail.co.uk

Tuning: Standard eBGDAE

Some parts I haven't been able to accurately tab the rhythm, you'll have to listen to the song for that.

Guitar 1 (Lead) - Sven Petterson
Guitar 2 (Rhythm) - Callum Martin

Intro (Guitar 2, no Guitar 1)
   * * * *   * * * *
e|--------------------|
B|--------------------|
G|--------------------|
D|-7-7-7-7---7-7-7-7--|
A|-7-7-7-7---7-7-7-7--|
E|-5-5-5-5-0-5-5-5-5--|

Verse (Guitar 2, no Guitar 1)
   * * * *   * * * *   * * * *   * * * *
e|----------------------------------------|
B|----------------------------------------|
G|---------------------7-7-7-7---7-7-7-7--|
D|-7-7-7-7---7-7-7-7---7-7-7-7---7-7-7-7--| x2 (get less staccato towards
A|-7-7-7-7---7-7-7-7---5-5-5-5-0-5-5-5-5--|     the end)
E|-5-5-5-5-0-5-5-5-5----------------------|

Chorus (Guitar 1)
                       * * * *   * * * *
e|-12--------10---------------------------|
B|-12--------10---------------------------|
G|-13--------11---------------------------|
D|-14--------12--------7-7-7-7---7-7-7-7--|
A|-14--------12--------7-7-7-7---7-7-7-7--|
E|-12--------10--------5-5-5-5-0-5-5-5-5--|

Chorus (Guitar 2) - Listen to the song for the rhythm
                             * * * *   * * * *
e|----------------------------------------------|
B|----------------------------------------------|
G|----------------------------------------------|
D|-14-14--14-x--12-12--12-x--7-7-7-7---7-7-7-7--|
A|-14-14--14-x--12-12--12-x--7-7-7-7---7-7-7-7--|
E|-12-12--12-x--10-10--10-x--5-5-5-5-0-5-5-5-5--|
[ Tab from: http://www.guitaretab.com/t/the-checks/97098.html ]
Verse (Guitar 2, no Guitar 1) - Listen to the song for the changes in rhythm.
   * * * *   * * * *  * * * *
e|-------------------------------------------|
B|-------------------------------------------|
G|--------------------7-7-7-7---7-7---7-7-7--|
D|-7-7-7-7---7-7-7-7--7-7-7-7---7-7---7-7-7--|
A|-7-7-7-7---7-7-7-7--5-5-5-5-0-5-5---5-5-5--|
E|-5-5-5-5-0-5-5-5-5-------------------------|

Same Verse (Guitar 2, still no Guitar 1) - Listen to the song for the rhythm.
   * * * *   * * * *
e|-----------------------------------------------------------|
B|-----------------------------------------------------------|
G|--------------------7-7---7-7-7-7-7-7-7-7-7-7-7-7-7-7-7-7--|
D|-7-7-7-7---7-7-7-7--7-7---7-7-7-7-7-7-7-7-7-7-7-7-7-7-7-7--|
A|-7-7-7-7---7-7-7-7--5-5---5-5-5-5-5-5-5-5-5-5-5-5-5-5-5-5--|
E|-5-5-5-5-0-5-5-5-5-----------------------------------------|

Chorus x2 (Listen to song for the slightly different rhythm in Guitar 1)

Solo (Guitar 1, Guitar 2 plays the 2nd part of Verse 2 underneath x2)
                              *  *  *  *                  *  *  *  *
e|-----------------------------------------------------|--------------12b---|
B|-14-14-12----14-14-12h14----14-14-12----14----12h14--|--------------12b---|
G|----------14-------------------------14--------------|--12-14-14-14-----14|
D|-----------------------------------------------------|--------------------| x2
A|-----------------------------------------------------|--------------------|
E|-----------------------------------------------------|--------------------|

Solo continued (Guitar 1) - Not quite sure on this bit, try it out.
e|-12b13---14-12---------------------------------|
B|---------------14-12---------------------------|
G|---------------------14-14-14b-14-12-----------|
D|-------------------------------------14-12-----|
A|-------------------------------------------14--|
E|-----------------------------------------------|

Chorus x4 (Listen to the song for any different rhythms in either guitar)

The End

| /  slide up
| \  slide down
| h  hammer-on
| p  pull-off
| ~  vibrato
| +  harmonic
| x  Mute note
| *  Staccato
===============================================================================
Related for Tired From Sleeping tab
×
Tired From Sleeping