Song name
# A B C D E F G H I J K L M N O P Q R S T U V W X Y Z

The Checks - The Memory Walking tab

-------------------------------------------------------------------------------
			     THE MEMORY WALKING - The Checks
-------------------------------------------------------------------------------
Tabbed by: Mono
Email: bowdowntothemono@hotmail.co.uk

Tuning: Standard eBGDAE

This song is mostly chords, so I'll write it out as chords, plus the two guitar solo 
Work out the rhythm by listening to the song. Also, please tell me if I've got the lyrics wrong.

N.C.     E              G#m
It's the memory, of you walking

         Gm   F#m        B
And it's your smile that gets me

                  C#m      N.C.
When I'm way down here.


             E               G#m
And it's the memory, of your face

             Gm F#m        B
And the milk of rhyme that gets me

                  C#m     N.C.
When I'm way down here.


First solo chords:
A   Am   E   B


N.C.             E              G#m
And it's the memory, of you lying

             Gm    F#m      B
When you shouldn't buy that gets me

                  C#m      N.C.
When I'm way down here.


             E              G#m
And it's the memory, of you crying (you crying)

            Gm    F#m        B
When you couldn't sleep that kills me

                  C#m       N.C.
When I'm way down here (here)


Second solo chords:
A   Am   E   B   A   Am   E   B   Cm C#m

First solo:
e|-------12-16----12-9----------12-16----12-8----------12-16----12-7----5-4-5-6/7--|
B|-12/14------------------12/14------------------12/14-----------------------------|
G|---------------------------------------------------------------------------------|
D|---------------------------------------------------------------------------------|
A|---------------------------------------------------------------------------------|
E|---------------------------------------------------------------------------------|

Second solo:
e|-------12-16----12-9----------12-16----12-8----------12-16----12-7----5-4-5-6/7--|
B|-12/14------------------12/14------------------12/14-----------------------------|
G|---------------------------------------------------------------------------------|
D|---------------------------------------------------------------------------------|
A|---------------------------------------------------------------------------------|
E|---------------------------------------------------------------------------------|

e|-------12-16----12-9----12-12-12-12-16-----12-8----------12-16----12-7--|
B|-12/14------------------14-12-14-------------------12/14----------------|
G|------------------------------------------------------------------------|
D|------------------------------------------------------------------------|
A|------------------------------------------------------------------------|
E|------------------------------------------------------------------------|

e|-5-4-5-7---------9---------|
B|-------------------9-------|
G|---------------------9-----|
D|-----------------------11--|
A|---------------------------|
E|---------------------------|

The End.

| /  slide up
| \  slide down
| h  hammer-on
| p  pull-off
| ~  vibrato
| +  harmonic
| x  Mute note
===============================================================================
Tap to rate this tab
 
# A B C D E F G H I J K L M N O P Q R S T U V W X Y Z