Song name
# A B C D E F G H I J K L M N O P Q R S T U V W X Y Z

The Chordettes - Mister Sandman tab

Song: Mister Sandman
Band: The Chordettes


e--------------------14----------------------------|
B-----------------15----17-15-------------17-20-19-|
G--------------16-------------16-------17----------|
D--12-14-16/17-------------------17/19-------------|
A--------------------------------------------------|
E--------------------------------------------------|

e--------------------14----------------------------|
B-----------------15----17-15-------------17-20-19-|
G--------------16-------------16-------17----------|
D--12-------17-------------------17/19-------------|
A--------------------------------------------------|
E--------------------------------------------------|

e----------------------------------------------------------------------|
B----------------------------------------------------------------------|
G--11-13-15-13---15-15-13-15-------------17-17-16-17-17-16-14-14-13-14-|
D----------------------------12-14-16-17-------------------------------|
A----------------------------------------------------------------------|
E----------------------------------------------------------------------|

e---------------------------------------------------------------------------|
B---------------------------------------------------------------------------|
G-------------14-14-12-14--12-10-9-10------------15-15-13-15-13-16-16-17-15-|
D-10-12-14-15-------------------------7-10-12-13----------------------------|
A---------------------------------------------------------------------------|
E---------------------------------------------------------------------------|

e------------------------------------------------------------------------|
B------------------------------------------------------------------------|
G-15-13---15-15-13-15-------------17-17-16-17-17-16-14-13-14-------------|
D---------------------12-14-16-17----------------------------10-12-14----|
A------------------------------------------------------------------------|
E------------------------------------------------------------------------|

e-----------------------------------------------|
B--------------------15-------15-15-15----------|
G--15-17-15-17-15-17----15-17----------15-17-15-|
D-----------------------------------------------|
A-----------------------------------------------|
E-----------------------------------------------|

e--------------------14----------------------------|
B-----------------15----17-15-------------17-20-19-|
G--------------16-------------16-------17----------|
D--12-14-16/17-------------------17/19-------------|
A--------------------------------------------------|
E--------------------------------------------------|

e--------------------14----------------------------|
B-----------------15----17-15-------------17-20-19-|
G--------------16-------------16-------17----------|
D--12-------17-------------------17/19-------------|
A--------------------------------------------------|
E--------------------------------------------------|

e---------------------------------------------------------------------------|
B---------------------------------------------------------------------------|
G-11-13-15-13--15-15-13-15--------------------17-17-16-17-17-16-14-14-13-14-|
D--------------------------14p12h14p12h14p12\-------------------------------|
A---------------------------------------------------------------------------|
E---------------------------------------------------------------------------|

e--------------------------------------------|
B--------------------------------------------|
G--------------------14-14-12-14--12-10-9-10-|
D-12p10h12p10h12p10\-------------------------|
A--------------------------------------------|
E--------------------------------------------|

e-------------------------------------------|
B-------------------------------------------|
G---------------15-15-13-15-13-16-16-17-15--|
D--13p11h13p11/-----------------------------|
A-------------------------------------------|
E-------------------------------------------|

e-----------------------------------------|
B-----------------------------------------|
G-15-13---15-15-13-15---------------------|
D---------------------14p12h14p12h14p12\--|
A-----------------------------------------|
E-----------------------------------------|

e-----------------------------------------|
B-----------------------------------------|
G--17-17-16-17-17-16-14-13-14-------------|
D-----------------------------12p10h12p10-|
A-----------------------------------------|
E-----------------------------------------|

e---------------------------------------------------|
B--------------------15-----------15-15-15----------|
G--15-17-15-17-15-17----17\-15-17----------15-17-15-|
D-----------------------17\-------------------------|
A---------------------------------------------------|
E---------------------------------------------------|

e--------------------14----------------------------|
B-----------------15----17-15-------------14-17-16-|
G--------------16-------------16-------14----------|
D--12-14-16/17-------------------17-16-------------|
A--------------------------------------------------|
E--------------------------------------------------|

e--------------------11----------------------------|
B-----------------12----14-12-------------11-14-13-|
G--------------13-------------13-------11----------|
D--11-------14-------------------14-13-------------|
A--------------------------------------------------|
E--------------------------------------------------|

e-------------------------------------------------------------|
B-------------------------------------------------------------|
G--11-13-15-13------15-15-13-15-17-17-16-17-17-16-14-14-13-14-|
D-------------------------------------------------------------|
A-------------------------------------------------------------|
E--------------1/8--------------------------------------------|

e----------------------------------------------------------------|
B----------------------------------------------------------------|
G--10-10-12-14--12-14--12-10-9-10-12--15-15-13-15-13-16-16-17-15-|
D----------------------------------------------------------------|
A----------------------------------------------------------------|
E----------------------------------------------------------------|

e-----------------------------------------------------------------|
B-----------------------------------------------------------------|
G----15-13---15-15-13-15---17-17-16-17-17-16-14-13-14-------------|
D-----------------------------------------------------------------|
A-----------------------------------------------------------------|
E-----------------------------------------------------------------|

e----------------------------------------------------------------------------|
B-------------------15-------15-15-15----15-15-15-------15-15---15-----------|
G-15-17-15-17-15-17----15-17----------15----------15-17------------15-17--15-|
D----------------------------------------------------------------------------|
A----------------------------------------------------------------------------|
E----------------------------------------------------------------------------|
Tap to rate this tab
 
# A B C D E F G H I J K L M N O P Q R S T U V W X Y Z