Song name
# A B C D E F G H I J K L M N O P Q R S T U V W X Y Z

The Chordettes - Lollipop chords

Highlighted       Show chord diagrams
Intro:
G         Em            Am    D
Lollipop, Lollipop, oh, Lolli, Lolli, Lolli..
G         Em            Am    D
Lollipop, Lollipop..oh, Lolli, Lolli, Lolli..
G         Em            Am    D
Lollipop, Lollipop..oh, Lolli, Lolli, Lolli..
G          
LOLLIPOP!..


Ba, boomp, boomp, boomp!
|-------------------------|-------------------------|
|-------------------------|-------------------------|
|-------------------------|-------------------------|
|-------------------------|-------------------------|
|--5-3-2------------------|-------------------------|
|--------3----------------|-------------------------|

1.
G            C         G        C
Call my baby Lollipop..tell you why.
G           C             Am     D
His kiss is sweeter than an apple pie.
G           C              G       C
And when he does his shaky rockin' dance,
G                        D
Man, I haven't got a chance...

Chorus:
  D
I call him...
G         Em            Am    D
Lollipop, Lollipop, oh, Lolli, Lolli, Lolli..
G         Em            Am    D
Lollipop, Lollipop..oh, Lolli, Lolli, Lolli..
G         Em            Am    D
Lollipop, Lollipop..oh, Lolli, Lolli, Lolli..
G          
LOLLIPOP!.. Ba, boomp, boomp, boomp!

2.
C                              G            C
Sweeter than candy on a stick, Huckleberry, Cherry 
   G
or Lime.
C
If you had a choice, he'd be your pick,
    D         
but Lollipop is mi..i..ine.

                     ^^ this part.
                     ||
|------------------|-0-2-0-------------------|
|------------------|-3-3-3-3-1---------------|
|------------------|-------------------------|
|------------------|-0-----0-----------------|
|------------------|-------------------------|
|------------------|-------------------------|

Chorus:
G         Em            Am    D
Lollipop, Lollipop, oh, Lolli, Lolli, Lolli..
G         Em            Am    D
Lollipop, Lollipop..oh, Lolli, Lolli, Lolli..
G         Em            Am    D
Lollipop, Lollipop..oh, Lolli, Lolli, Lolli..
G          
LOLLIPOP!.. Ba, boomp, boomp, boomp!

3.
G            C           G        C
Crazy way he thrills me..tell you why..
G           C         Am      D
Just like a lightning from the sky.
G           C               G         C
He loves to kiss me, till I can't see straight.
G                   D
Gee, my Lollipop is great. 
  D
I call him...

Chorus:
G         Em            Am    D
Lollipop, Lollipop, oh, Lolli, Lolli, Lolli..
G         Em            Am    D
Lollipop, Lollipop..oh, Lolli, Lolli, Lolli..
G         Em            Am    D
Lollipop, Lollipop..oh, Lolli, Lolli, Lolli..
G          
LOLLIPOP!.. Ba, boomp, boomp, boomp!
Tap to rate this tab
# A B C D E F G H I J K L M N O P Q R S T U V W X Y Z