Song name
# A B C D E F G H I J K L M N O P Q R S T U V W X Y Z

The Chris Perez Band - Noches En Vela tab

E:|-------------------------------------------------------|
B:|-------------------------------------------------------|
G:|--------9--7--6--7~------------------------------------|
D:|-----7-------------------------------------------------|
A:|-------------------------------------------------------|
E:|-------------------------------------------------------|

(solo)
E:|-------------------------------------------------------|
B:|------------------------------7-9-10~--10-9-----7~-7\5-|
G:|----------6-7-6-9-9-9b11~\-9----------------9-6--------|
D:|-5/7--7-9----------------------------------------------|
A:|-------------------------------------------------------|
E:|-------------------------------------------------------|

E:|-------------------------------------------------------|
B:|-------------------------------------------------------|
G:|--6----------------------------------------------------|
D:|----7-9~--9b10r9-7-6-7\\\\-----------------------------|
A:|-------------------------------------------------------|
E:|-------------------------------------------------------|

E:|------------------------------------------14-16-17--17-|
E:|---------14-15p14--17-17-17b19r17-17~--17--------------|
B:|---14-16-----------------------------------------------|
G:|-------------------------------------------------------|
D:|-------------------------------------------------------|
A:|-------------------------------------------------------|
E:|-------------------------------------------------------|

E:|--16--------14~--14\12---------------------------------|
B:|-----17-14-------------14------------------------------|
G:|---------------------------14-16~--16b17-14-13-14~-----|
D:|-------------------------------------------------------|
A:|-------------------------------------------------------|
E:|-------------------------------------------------------|


Tap to rate this tab
 
# A B C D E F G H I J K L M N O P Q R S T U V W X Y Z