Song name
# A B C D E F G H I J K L M N O P Q R S T U V W X Y Z

The Cinematic Orchestra - To Build A Home tab

-------------------------------------------------------------------------------
	                      To Build a Home - The Cinematic Orchestra 
-------------------------------------------------------------------------------

Tabbed by: JB Rocky Horror

Tuning: Standard EADGBe

        
e|--2------------------------------------------------------------------------|
B|--3--2--0-------3--2--2----------------------------------------------------|
G|--2--2--1-------4--2--2--1-------------------------------------------------|
D|--0--2--2-------4--0--2--2-------------------------------------------------|
A|-----0--2-------2--0--0--2-------------------------------------------------|
E|--------0-------2--------0-------------------------------------------------|

Until: 1:34 (Let ring through out)
                                       *
e|---------------------------------------------------------------------------|
B|--7--7--7--7-----7--7--7--7--7--7--7---9--9--9--9--9--9--9--9--------------|
G|---------------------------------------------------------------------------|
D|-----------7---7--7--7--7--7--7--7---7--7--7--7--7--7--7--7----------------|
A|---------------------------------------------------------------------------|
E|---------------------------------------------------------------------------|

e|---------------------------------------------------------------------------|
B|----10--10--10--10--10--10--10--10-----------------------------------------|
G|------------------------------------9--9--9--9--9--9--9--9-----------------|
D|--7---7---7---7---7---7---7---7----7--7--7--7--7--7--7--7------------------|
A|---------------------------------------------------------------------------|
E|---------------------------------------------------------------------------|

                                                        * repeat...
e|---------------------------------------------------------------------------|
B|-------------------------------7--7--7--7--7--7--7--7----------------------|
G|----9--9--9--9--9--9--9--9-------------------------------------------------|
D|-----------------------------7--7--7--7--7--7--7--7------------------------|
A|--7--7--7--7--7--7--7--7---------------------------------------------------|
E|---------------------------------------------------------------------------|

Until: 2:38   "...turn to dust" 
 
e|---------------------------------------------------------------------------|
B|-----------0---------------------------------------------------------------|
G|--9 ~ -----1---------------------------------------------------------------|
D|--7 ~ -----2---------------------------------------------------------------|
A|-----------2---------------------------------------------------------------|
E|-----------0---------------------------------------------------------------|

************************************

| /   slide up
| \   slide down
| h   hammer-on
| p   pull-off
| ~   vibrato
| +   harmonic
| x   Mute note
| b   Bend
| pb  Pre-bend
| br  Bend release
| pbr Pre-bend release
| brb Bend release bend

************************************
Tap to rate this tab
 
# A B C D E F G H I J K L M N O P Q R S T U V W X Y Z