Song name
# A B C D E F G H I J K L M N O P Q R S T U V W X Y Z

The Cinematic Orchestra - Arrival Of The Birds tab

FROM: Dino K. Lauando

I've tried my best to tab the intro to "Arrival of The Birds" by the Cinematic
Orchestra. I couldn't really tab the rest of the song because the guitar sort of fades, 
and then
becomes difficult to hear. I searched all over the internet for these tabs but no one 
seems to have them up, so here is my attempt. I think its about the same. I hope this helps
someone! Please email me at lauandok1590@gmail.com if you found this helpful!
___________________________________________________________________________

**Tuning: Half-Step Down

**Capo on the 5th Fret!!

(Repeat this part 4 times)
e------------------|------------------|----------1-1----|
B--3---3---3---3---|--3---3---3---3---|--3---2h3--------|
G----4---4---4---4-|----4---4---4---4-|----4------------|
D------------------|------------------|-----------------| x4
A------------------|------------------|-----------------|
E------------------|------------------|-----------------|

(This is the part where the piano comes in)
e--------2-----|--------2-----|--------2-----|--------2-----|
B----2-3---3-2-|----2-3---3-2-|----2-3---3-2-|----2-3---3-2-|
G--4-----------|--2-----------|--0-----------|--0-----------|
D--------------|--------------|--------------|--------------|
A--------------|--------------|--------------|--------------|
E--------------|--------------|--------------|--------------|

e--------2-----|--------2-----|--------2-----|--------2-----|
B----2-3---3-2-|----2-3---3-2-|----2-3---3-2-|----2-3---3-2-|
G--4-----------|--2-----------|--0-----------|--0-----------|
D--------------|--------------|--------------|--------------|
A--------------|--------------|--------------|--------------|
E--------------|--------------|--------------|--------------|

e--------2-----|--------2-----|--------2-----|--------2-----|
B----2-3---3-2-|----2-3---3-2-|----2-3---3-2-|----2-3---3-2-|
G--------------|--------------|--------------|--------------|
D--0-----------|--0-----------|--2-----------|--2-----------|
A--------------|--------------|--------------|--------------|
E--------------|--------------|--------------|--------------|

(Then comes the string instruments)


**This is as far as I got. I imagine you repeat this a couple more times, then the
guitar starts doing something different. I'll leave it for you guys to figure out!
Tap to rate this tab
# A B C D E F G H I J K L M N O P Q R S T U V W X Y Z