Song name
# A B C D E F G H I J K L M N O P Q R S T U V W X Y Z

The Cinematic Orchestra - To Build A Home tab

Tabbed from warrenmusic's youtube video http://www.youtube.com/watch?v=5n-6issmPZ8

Tuning: A A D F# A E


There is a house...

|-0-----0-----0-----|
|-0-----0-----0-----|
|-0-----3-----2-----|
|-0-----2-----2-----|
|-x-----x-----x-----|
|-x-----x-----x-----|


This is a place...

|-0-----x-----0-----0-----|-0-----0-----0-----0--|
|-0-----4-----0-----0-----|-0-----4-----0-----0--|
|-0-----0-----7-----5-----|-0-----0-----7-----5--|
|-0-----0-----6-----6-----|-0-----0-----6-----6--|
|-2-----5-----0-----7-----|-4-----x-----0-----x--|
|-x-----x-----x-----x-----|-2-----5-----0-----7--|


And I built a home... (don't play the last chord the first time)

|-0-----0-----0-----0-----0--|
|-0-----0-----0-----0-----0--|
|-0-----2-----0-----5-----5--|
|-0-----2-----4-----6-----6--|
|-5-----0-----5-----0-----7--|
|-x-----x-----x-----x-----x--|


And now its time to leave...

|-0-----0-----0-----0-----0-----0--|
|-0-----0-----0-----0-----0-----0--|
|-0-----2-----0-----0-----7-----5--|
|-0-----2-----0-----11----7-----6--|
|-x-----0-----x-----9-----0-----x--|
|-5-----0-----5-----9-----0-----7--|


Out in the garden...  (the first two are harmonics)

|-5-----7-----0--|
|-5-----7-----0--|
|-5-----7-----5--|
|-5-----7-----6--|
|-x-----x-----7--|
|-x-----x-----x--|


There is a tree...

|-0-----x-----0-----0--|
|-0-----4-----0-----0--|
|-0-----0-----7-----5--|
|-0-----0-----6-----6--|
|-2-----5-----0-----x--|
|-x-----x-----x-----7--|


By the cracks of the skin...

|-0-----0-----0--|
|-0-----0-----0--|
|-0-----3-----2--|
|-0-----2-----2--|
|-x-----x-----x--|
|-x-----x-----x--|


I climbed the tree...

|-0-----0-----0-----0--|
|-0-----4-----0-----0--|
|-0-----0-----7-----5--|
|-0-----0-----6-----6--|
|-4-----x-----0-----x--|
|-2-----5-----0-----7--|



When the gusts of wind...

|-0-----0-----0--|
|-0-----0-----0--|
|-0-----3-----2--|
|-0-----2-----2--|
|-x-----x-----x--|
|-x-----x-----x--|


I held on as tightly....

|-0-----0-----0-----0--|
|-0-----4-----0-----0--|
|-0-----0-----7-----5--|
|-0-----0-----6-----6--|
|-4-----x-----0-----x--|
|-2-----5-----0-----7--|


And I built a home...

|-0-----0-----0-----0-----0--|
|-0-----0-----0-----0-----0--|
|-0-----2-----0-----5-----2--|
|-0-----2-----4-----6-----2--|
|-5-----0-----5-----0-----x--|
|-x-----x-----x-----x-----x--|

|-0-----0-----0-----0-----0--|
|-0-----0-----0-----0-----0--|
|-0-----2-----0-----5-----5--|
|-0-----2-----4-----6-----6--|
|-5-----0-----5-----0-----x--|
|-x-----x-----x-----x-----7--|



And now its time to leave...

|-0-----0-----0-----0-----0-----0--|
|-0-----0-----0-----0-----0-----0--|
|-0-----2-----0-----0-----7-----5--|
|-0-----2-----0-----11----7-----6--|
|-x-----0-----x-----9-----0-----x--|
|-5-----0-----5-----9-----0-----7--|


(Outro)

|-2-----2-----2-----2-----2-----2-----2--|
|-0-----0-----2-----0-----0-----0-----2--|
|-0-----3-----2-----0-----0-----3-----2--|
|-0-----2-----2-----0-----0-----2-----2--|
|-x-----4-----2-----x-----x-----4-----2--|
|-5-----0-----x-----2-----5-----0-----x--|
Tap to rate this tab
# A B C D E F G H I J K L M N O P Q R S T U V W X Y Z