Guitaretab - guitar tabs
Song name
# A B C D E F G H I J K L M N O P Q R S T U V W X Y Z

The City Drive - Bring Me Everything tab

-------------------------------------------------------------------------------
			     Bring Me Everything - The City Drive
-------------------------------------------------------------------------------
Tabbed by: Pat Song
Email: Snowboardnguy90@aol.com

Okay this is my first tab and no one probably knows this band because they're
very new (from california, lead singer/guitarist from Canada), but they're my
favorite of all time. If you don't know them look them up on myspace to listen
to their songs. This is also a really good song and it's fun to play. Enjoy!

(to the editors, yes I know I just submitted this tab, but I just realized I had
sum things wrong in it so please post this one instead =))
Tuning:
 Guitar 1
e|--------------------------------------------------------------------|
B|--------------------------------------------------------------------|
G|--4-4---4-4-4-------------------------------------------------------|
D|--4-4---4-4-4----2-2-2---2-2-2----6-6-6---6-6-6----4-4-4----4-4-4-4-|
A|--2-2---2-2-2----2-2-2---2-2-2----6-6-6---6-6-6----4-4-4----4-4-4-4-|
E|-----------------0-0-0---0-0-0----4-4-4---4-4-4----2-2-2----2-2-2-2-|
                                    X

e|-------------------------------------------------------------------|
B|-------------------------------------------------------------------|
G|--4-4---4-4-4------------------------------------------------------|
D|--4-4---4-4-4----2-2-2---2-2-2----6-6-6---6-6-6----4-4-4---4-4-4---| x 2
A|--2-2---2-2-2----2-2-2---2-2-2----6-6-6---6-6-6----4-4-4---4-4-4---|
E|-----------------0-0-0---0-0-0----4-4-4---4-4-4----2-2-2---2-2-2---|
 
 Guitar 2 (comes in after guitar 1 plays the first line)
e|-------------------------------------------------------------------------|
B|--7-7---7-7-7----5-5-5---4-4-4-------------------------------------------|
G|--4-4---4-4-4----4-4-4---4-4-4-------------------------4-4-4----3-3-3----| x 2 
D|--4-4---4-4-4----2-2-2---2-2-2-------------------------------------------|
A|-------------------------------------------------------------------------|
E|-------------------------------------------------------------------------|

Verse 1					
e|-------------------------|	e|-----------------------|     e|-----------------------|
B|-------------------------|	B|-----------------------|     B|-----------------------|
G|--4-4---4----4-4---4-4---| x2	G|-----------------------|     G|-----------------------|
D|--4-4---4----4-4---4-4---|	D|--6-6---6----6-6---6-6-|     D|--4-4---4----4-4---4-4-|
A|--2-2---2----2-2---2-2---|	A|--6-6---6----6-6---6-6-|     A|--4-4---4----4-4---4-4-|
E|-------------------------|	E|--4-4---4----4-4---4-4-|     E|--2-2---2----2-2---2-2-|
    x x        x x		    x x        x x		 x x        x x


Repeat Verse 1 except for the last measure, play this instead

	e|-----------------------|
	B|-----------------------|
	G|-----------------------|
	D|--4-4---4----4---4-4-4-|
	A|--4-4---4----4---4-4-4-|
	E|--2-2---2----2---2-2-2-|
	    x x        x 

Repeat Intro from the second line, then repeat Verse
[ Tab from: http://www.guitaretab.com/t/the-city-drive/62087.html ]
Prechorus:
e|-------------------------------------|		e|--------------------------------|
B|-------------------------------------|		B|--------------------------------|
G|--8888/9999----444---4----333---3----|		G|---4----------------------------|
D|--8888/9999----444---4----333---3----| x 2	D|---4(strum however many times)-|
A|--6666/7777----222---2----111---1----|		A|---2----------------------------|
E|-------------------------------------|		E|--------------------------------|







Chorus

e|-----------------------------------------------------------|	      e|--------------|
B|-----------------------------------------------------------|	      B|--------------|
G|--4--4----444----------------------------------------------|	      G|--------------|
D|--4--4----444----2--2----222----6--6----666----4--4----444-| x 2 then   D|-2-(let ring)-|
A|--2--2----222----2--2----222----6--6----666----4--4----444-|	      A|-2------------|
E|-----------------0--0----000----4--4----444----2--2----222-|	      E|-0------------|


Play Intro Again, then Verse Again (once), Then Chorus

Bridge
e|------------------------------------------------------------------|
B|--5--5----555----555----555---------------------------------------|
G|--4--4----444----444----444----6--6----666----666----666----6--8--|  
D|--2--2----222----222----222----6--6----666----666----666----6--8--|
A|-------------------------------4--4----444----444----444----4-6--|
E|------------------------------------------------------------------|

e|---------------------------------------------|
B|--5--5----555----555----555------------------|
G|--4--4----444----444----444------------------|
D|--2--2----222----222----222----4-------------|
A|-------------------------------4(let ring)--|
E|-------------------------------2-------------|

e|-----------------------------------------------------------------|
B|-----------------------------------------------------------------|
G|--11--11---111111---11-1313----131313----8-88-888--666----666----| x4
D|--9---9----9-9-9----9--1111----111111----8-88-888--666----666----|
A|--9---9----9-9-9----9--1111----111111----6-66 666--444----444----|
E|-----------------------------------------------------------------|
                                           X

On third time play this (a bit sketchy but mostly correct)

e|--7-7-7-7-7-7-7999-97-7-7-7666--------------------------|
B|---7-7-7-7-7-7-------7-7-7------75454--4--44457777754---|
G|-------------------------------------4-4------------4--|
D|--------------------------------------------------------|
A|--------------------------------------------------------|
E|--------------------------------------------------------|

This part is P.M. (the song goes "I-i-I, feel like I'm running out of time"

e|---------------------------------------|
B|---------------------------------------|
G|--44444444-22222222-44444444-33333333--|
D|--44444444-22222222-44444444-33333333--|
A|--22222222-00000000-22222222-11111111--|
E|---------------------------------------|

Then just strum/p.m. this

e|----------------------------------|
B|----------------------------------|
G|--4-------------------------4/66--|
D|--4(x however many times)-4/66--|
A|--2-------------------------2/44--|
E|----------------------------------|

Repeat Chorus, then if u want repeat the solo when he says "an American girl..."

| /  slide up
| \  slide down
| h  hammer-on
| p  pull-off
| ~  vibrato
| +  harmonic
| x  Mute note
===============================================================================