Song name
# A B C D E F G H I J K L M N O P Q R S T U V W X Y Z

The City Never Sleeps - Return To Sender tab

[Intro] something like this
E-0-0-7/5/0-4-0-2-0---------------------|
B--------------------0-0-2-0-4-0-5/7-0--|
G---------------------------------------|
D---------------------------------------|
A---------------------------------------|
E---------------------------------------|

[Verse] I left a little bit of something for you to find... (listen for rhythm)
E--0-----x------------------|
B--5-----7----5-----9-------|
G--6-----x----6-----8-------|
D--6-----6----6-----x-------|
A--x-----x----4-----7-------|
E--5-----4----x-------------|

[Chorus]oh darling, you are so alarming...
E--0-----x------------------|
B--5-----x----5-----9-------|
G--6-----8----6-----8-------|
D--6-----7----6-----x-------|
A--x-----x----4-----7-------|
E--5-----7----x-------------|

[Breakdown]I will make a deal, with you my dear...
E--------------0-------|
B--5-----9-----5----9--|
G--6-----x-----6----x--|
D--6-----9-----6----9--|
A--4-----x-----x----x--|
E--x-----7-----5----7--|
Tap to rate this tab
# A B C D E F G H I J K L M N O P Q R S T U V W X Y Z