Song name
# A B C D E F G H I J K L M N O P Q R S T U V W X Y Z

The City On Film - Forgiveness tab

                                Forgiveness                                   


                                                                The City On Film
Bob
The Lyrics are in the lyrics section



     Sorry in advanced, I don't want to take the time                          
     H                                                E  E  E  E  E  E  E  E   
E||---------------------------------------------------------------------------|
B||---------------------------------------------------3--3--3--3--0--0--0--0--|
G||---------------------------------------------------0--0--0--0--0--0--0--0--|
D||---------------------------------------------------2--2--2--2--2--2--2--2--|
A||---------------------------------------------------3--3--3--3--3--3--3--3--|
E||---------------------------------------------------------------------------|


  to figure out the snare pattern to this song                       
  E                                            E  E  E  E  E  E  E   
--------------------------------------------------------------------|
--3--------------------------------------------3--3--3--0--0--0--0--|
--0--------------------------------------------0--0--0--0--0--0--0--|
--2--------------------------------------------2--2--2--2--2--2--2--|
--3--------------------------------------------3--3--3--3--3--3--3--|
--------------------------------------------------------------------|


  E  E  E  E  E  E  E  E     E  E  E  E  E  E  E  E   
--------------------------|--------------------------|
--3--3--3--3--0--0--0--0--|--3--3--3--3--0--0--0--0--|
--0--0--0--0--0--0--0--0--|--0--0--0--0--0--0--0--0--|
--2--2--2--2--2--2--2--2--|--2--2--2--2--2--2--2--2--|
--3--3--3--3--3--3--3--3--|--3--3--3--3--3--3--3--3--|
--------------------------|--------------------------|


  E  E  E  E  E  E  E  E     E  E  E  E  E  E  E  E   
--------------------------|--------------------------|
--3--3--3--3--0--0--0--0--|--3--3--3--3--0--0--0--0--|
--0--0--0--0--0--0--0--0--|--0--0--0--0--0--0--0--0--|
--2--2--2--2--2--2--2--2--|--2--2--2--2--2--2--2--2--|
--3--3--3--3--3--3--3--3--|--3--3--3--3--3--3--3--3--|
--------------------------|--------------------------|


  E  E  E  E  E  E  E  E     E  E  E  E  E  E  E  E   
--------------------------|--------------------------|
--3--3--3--3--0--0--0--0--|--3--3--3--3--0--0--0--0--|
--0--0--0--0--0--0--0--0--|--0--0--0--0--0--0--0--0--|
--2--2--2--2--2--2--2--2--|--2--2--2--2--2--2--2--2--|
--3--3--3--3--3--3--3--3--|--3--3--3--3--3--3--3--3--|
--------------------------|--------------------------|


  Kelly I can't believe                     it's come                      
  Q                     Q    E  E  E  E     E         E  Q    E  E  E  E   
-----------------------------------------|--------------------------------|
--3---------------------3----3--3--3--3--|--L---------3--3----3--3--3--3--|
--0---------------------0----0--0--0--0--|--L---------0--0----0--0--0--0--|
--4---------------------4----4--4--4--4--|--L---------4--4----4--4--4--4--|
--5---------------------5----5--5--5--5--|--L---------5--5----5--5--5--5--|
-----------------------------------------|--------------------------------|


  to this                                                  
  E       E  E  E  E  E  E  E     E  E  E  E  E  E  E  E   
-------------------------------|--------------------------|
--3-------3--3--3--0--0--0--0--|--3--3--3--3--0--0--0--0--|
--0-------0--0--0--0--0--0--0--|--0--0--0--0--0--0--0--0--|
--2-------2--2--2--2--2--2--2--|--2--2--2--2--2--2--2--2--|
--3-------3--3--3--3--3--3--3--|--3--3--3--3--3--3--3--3--|
-------------------------------|--------------------------|


  You know I                     gave you all I                      
  Q          Q    E  E  E  E     E              E  Q    E  E  E  E   
------------------------------|-------------------------------------|
--3----------3----3--3--3--3--|--L--------------3--3----3--3--3--3--|
--0----------0----0--0--0--0--|--L--------------0--0----0--0--0--0--|
--4----------4----4--4--4--4--|--L--------------4--4----4--4--4--4--|
--5----------5----5--5--5--5--|--L--------------5--5----5--5--5--5--|
------------------------------|-------------------------------------|


  could                                                  
  E     E  E  E  E  E  E  E     E  E  E  E  E  E  E  E   
-----------------------------|--------------------------|
--3-----3--3--3--0--0--0--0--|--3--3--3--3--0--0--0--0--|
--0-----0--0--0--0--0--0--0--|--0--0--0--0--0--0--0--0--|
--2-----2--2--2--2--2--2--2--|--2--2--2--2--2--2--2--2--|
--3-----3--3--3--3--3--3--3--|--3--3--3--3--3--3--3--3--|
-----------------------------|--------------------------|


  I'm trying to                     tie up between                      
  Q             Q    E  E  E  E     E              E  Q    E  E  E  E   
---------------------------------|-------------------------------------|
--3-------------3----3--3--3--3--|--L--------------3--3----3--3--3--3--|
--0-------------0----0--0--0--0--|--L--------------0--0----0--0--0--0--|
--4-------------4----4--4--4--4--|--L--------------4--4----4--4--4--4--|
--5-------------5----5--5--5--5--|--L--------------5--5----5--5--5--5--|
---------------------------------|-------------------------------------|


  train trips                                                  
  E           E  E  E  E  E  E  E     E  E  E  E  E  E  E  E   
-----------------------------------|--------------------------|
--3-----------3--3--3--0--0--0--0--|--3--3--3--3--0--0--0--0--|
--0-----------0--0--0--0--0--0--0--|--0--0--0--0--0--0--0--0--|
--2-----------2--2--2--2--2--2--2--|--2--2--2--2--2--2--2--2--|
--3-----------3--3--3--3--3--3--3--|--3--3--3--3--3--3--3--3--|
-----------------------------------|--------------------------|


  and all that I can                     think of is when                      
  Q                  Q    E  E  E  E     E                E  Q    E  E  E  E   
--------------------------------------|---------------------------------------|
--3------------------3----3--3--3--3--|--L----------------3--3----3--3--3--3--|
--0------------------0----0--0--0--0--|--L----------------0--0----0--0--0--0--|
--4------------------4----4--4--4--4--|--L----------------4--4----4--4--4--4--|
--5------------------5----5--5--5--5--|--L----------------5--5----5--5--5--5--|
--------------------------------------|---------------------------------------|


  you would come to my room                       
  PM                        PM PM PM PM PM PM PM  
  E                         E  E  E  E  E  E  E   
-------------------------------------------------|
-------------------------------------------------|
-------------------------------------------------|
-------------------------------------------------|
--5-------------------------5--5--5--5--5--5--5--|
--3-------------------------3--3--3--3--3--3--3--|


  carrying news                                                
  PM            PM PM PM PM PM PM PM                           
  E             E  E  E  E  E  E  E     Q    Q    E  E  E  E   
-------------------------------------|------------------------|
-------------------------------------|--3----3----3--3--3--3--|
-------------------------------------|--0----0----0--0--0--0--|
-------------------------------------|--4----4----4--4--4--4--|
--4-------------4--4--4--4--4--4--4--|--5----5----5--5--5--5--|
--2-------------2--2--2--2--2--2--2--|------------------------|


                            Unglued and tied to the tunes                       
                            PM                            PM PM PM PM PM PM PM  
  E  E  Q    E  E  E  E     E                             E  E  E  E  E  E  E   
-------------------------|-----------------------------------------------------|
--L--3--3----3--3--3--3--|-----------------------------------------------------|
--L--0--0----0--0--0--0--|-----------------------------------------------------|
--L--4--4----4--4--4--4--|-----------------------------------------------------|
--L--5--5----5--5--5--5--|--5-----------------------------5--5--5--5--5--5--5--|
-------------------------|--3-----------------------------3--3--3--3--3--3--3--|


  you read me your blues                                                
  PM                     PM PM PM PM PM PM PM                           
  E                      E  E  E  E  E  E  E     Q    Q    E  E  E  E   
----------------------------------------------|------------------------|
----------------------------------------------|--3----3----3--3--3--3--|
----------------------------------------------|--0----0----0--0--0--0--|
----------------------------------------------|--4----4----4--4--4--4--|
--4----------------------4--4--4--4--4--4--4--|--5----5----5--5--5--5--|
--2----------------------2--2--2--2--2--2--2--|------------------------|


  E  E  Q    E  E  E  E   
-------------------------|
--L--3--3----3--3--3--3--|
--L--0--0----0--0--0--0--|
--L--4--4----4--4--4--4--|
--L--5--5----5--5--5--5--|
-------------------------|


  And soon the fools that were two                       
  PM                               PM PM PM PM PM PM PM  
  E                                E  E  E  E  E  E  E   
--------------------------------------------------------|
--------------------------------------------------------|
--------------------------------------------------------|
--------------------------------------------------------|
--5--------------------------------5--5--5--5--5--5--5--|
--3--------------------------------3--3--3--3--3--3--3--|


  were one in big bloom                                                
  PM                    PM PM PM PM PM PM PM                           
  E                     E  E  E  E  E  E  E     Q    Q    E  E  E  E   
---------------------------------------------|------------------------|
---------------------------------------------|--3----3----3--3--3--3--|
---------------------------------------------|--0----0----0--0--0--0--|
---------------------------------------------|--4----4----4--4--4--4--|
--4---------------------4--4--4--4--4--4--4--|--5----5----5--5--5--5--|
--2---------------------2--2--2--2--2--2--2--|------------------------|


  E  E  Q    E  E  E  E   
-------------------------|
--L--3--3----3--3--3--3--|
--L--0--0----0--0--0--0--|
--L--4--4----4--4--4--4--|
--L--5--5----5--5--5--5--|
-------------------------|


   So won't you tell me the truth?                       
  PM                               PM PM PM PM PM PM PM  
  E                                E  E  E  E  E  E  E   
--------------------------------------------------------|
--------------------------------------------------------|
--------------------------------------------------------|
--------------------------------------------------------|
--5--------------------------------5--5--5--5--5--5--5--|
--3--------------------------------3--3--3--3--3--3--3--|


  How did I lose                                                               
  PM             PM PM PM PM PM PM PM                                          
  E              E  E  E  E  E  E  E     W                   W                 
--------------------------------------|-------------------|-------------------|
--------------------------------------|--3----------------|--L----------------|
--------------------------------------|--0----------------|--L----------------|
--------------------------------------|--4----------------|--L----------------|
--4--------------4--4--4--4--4--4--4--|--5----------------|--L----------------|
--2--------------2--2--2--2--2--2--2--|-------------------|-------------------|


  you                                                  
  E   E  E  E  E  E  E  E     E  E  E  E  E  E  E  E   
---------------------------|--------------------------|
--3---3--3--3--0--0--0--0--|--3--3--3--3--0--0--0--0--|
--0---0--0--0--0--0--0--0--|--0--0--0--0--0--0--0--0--|
--2---2--2--2--2--2--2--2--|--2--2--2--2--2--2--2--2--|
--3---3--3--3--3--3--3--3--|--3--3--3--3--3--3--3--3--|
---------------------------|--------------------------|


  E  E  E  E  E  E  E  E     E  E  E  E  E  E  E  E   
--------------------------|--------------------------|
--3--3--3--3--0--0--0--0--|--3--3--3--3--0--0--0--0--|
--0--0--0--0--0--0--0--0--|--0--0--0--0--0--0--0--0--|
--2--2--2--2--2--2--2--2--|--2--2--2--2--2--2--2--2--|
--3--3--3--3--3--3--3--3--|--3--3--3--3--3--3--3--3--|
--------------------------|--------------------------|


  Kelly I can't                     control the weather                      
  Q             Q    E  E  E  E     E                   E  Q    E  E  E  E   
---------------------------------|------------------------------------------|
--3-------------3----3--3--3--3--|--L-------------------3--3----3--3--3--3--|
--0-------------0----0--0--0--0--|--L-------------------0--0----0--0--0--0--|
--4-------------4----4--4--4--4--|--L-------------------4--4----4--4--4--4--|
--5-------------5----5--5--5--5--|--L-------------------5--5----5--5--5--5--|
---------------------------------|------------------------------------------|


  E  E  E  E  E  E  E  E     E  E  E  E  E  E  E  E   
--------------------------|--------------------------|
--3--3--3--3--0--0--0--0--|--3--3--3--3--0--0--0--0--|
--0--0--0--0--0--0--0--0--|--0--0--0--0--0--0--0--0--|
--2--2--2--2--2--2--2--2--|--2--2--2--2--2--2--2--2--|
--3--3--3--3--3--3--3--3--|--3--3--3--3--3--3--3--3--|
--------------------------|--------------------------|


  But I sure can try                   
  Q                  Q    E  E  E  E   
--------------------------------------|
--3------------------3----3--3--3--3--|
--0------------------0----0--0--0--0--|
--4------------------4----4--4--4--4--|
--5------------------5----5--5--5--5--|
--------------------------------------|


  to change your mind                                                 
  E                   E  Q    E  E  E  E     E  E  E  E  E  E  E  E   
------------------------------------------|--------------------------|
--L-------------------3--3----3--3--3--3--|--3--3--3--3--0--0--0--0--|
--L-------------------0--0----0--0--0--0--|--0--0--0--0--0--0--0--0--|
--L-------------------4--4----4--4--4--4--|--2--2--2--2--2--2--2--2--|
--L-------------------5--5----5--5--5--5--|--3--3--3--3--3--3--3--3--|
------------------------------------------|--------------------------|


                             Cause even when                   
  E  E  E  E  E  E  E  E     Q               Q    E  E  E  E   
--------------------------|-----------------------------------|
--3--3--3--3--0--0--0--0--|--3---------------3----3--3--3--3--|
--0--0--0--0--0--0--0--0--|--0---------------0----0--0--0--0--|
--2--2--2--2--2--2--2--2--|--4---------------4----4--4--4--4--|
--3--3--3--3--3--3--3--3--|--5---------------5----5--5--5--5--|
--------------------------|-----------------------------------|


  we were                        together                       
  E       E  Q    E  E  E  E     E        E  E  E  E  E  E  E   
------------------------------|--------------------------------|
--L-------3--3----3--3--3--3--|--3--------3--3--3--0--0--0--0--|
--L-------0--0----0--0--0--0--|--0--------0--0--0--0--0--0--0--|
--L-------4--4----4--4--4--4--|--2--------2--2--2--2--2--2--2--|
--L-------5--5----5--5--5--5--|--3--------3--3--3--3--3--3--3--|
------------------------------|--------------------------------|


                             I never               even  
  E  E  E  E  E  E  E  E     Q       Q    E  E  E  E     
--------------------------|-----------------------------|
--3--3--3--3--0--0--0--0--|--3-------3----3--3--3--3----|
--0--0--0--0--0--0--0--0--|--0-------0----0--0--0--0----|
--2--2--2--2--2--2--2--2--|--4-------4----4--4--4--4----|
--3--3--3--3--3--3--3--3--|--5-------5----5--5--5--5----|
--------------------------|-----------------------------|


     stepped outside                   
  E  E               Q    E  E  E  E   
--------------------------------------|
--L--3---------------3----3--3--3--3--|
--L--0---------------0----0--0--0--0--|
--L--4---------------4----4--4--4--4--|
--L--5---------------5----5--5--5--5--|
--------------------------------------|


  When you would come to my room                       
  PM                             PM PM PM PM PM PM PM  
  E                              E  E  E  E  E  E  E   
------------------------------------------------------|
------------------------------------------------------|
------------------------------------------------------|
------------------------------------------------------|
--5------------------------------5--5--5--5--5--5--5--|
--3------------------------------3--3--3--3--3--3--3--|


  carrying news                                                
  PM            PM PM PM PM PM PM PM                           
  E             E  E  E  E  E  E  E     Q    Q    E  E  E  E   
-------------------------------------|------------------------|
-------------------------------------|--3----3----3--3--3--3--|
-------------------------------------|--0----0----0--0--0--0--|
-------------------------------------|--4----4----4--4--4--4--|
--4-------------4--4--4--4--4--4--4--|--5----5----5--5--5--5--|
--2-------------2--2--2--2--2--2--2--|------------------------|


                            of true beautiful views                       
                            PM                      PM PM PM PM PM PM PM  
  E  E  Q    E  E  E  E     E                       E  E  E  E  E  E  E   
-------------------------|-----------------------------------------------|
--L--3--3----3--3--3--3--|-----------------------------------------------|
--L--0--0----0--0--0--0--|-----------------------------------------------|
--L--4--4----4--4--4--4--|-----------------------------------------------|
--L--5--5----5--5--5--5--|--5-----------------------5--5--5--5--5--5--5--|
-------------------------|--3-----------------------3--3--3--3--3--3--3--|


   and winter sky blues.                                                
  PM                     PM PM PM PM PM PM PM                           
  E                      E  E  E  E  E  E  E     Q    Q    E  E  E  E   
----------------------------------------------|------------------------|
----------------------------------------------|--3----3----3--3--3--3--|
----------------------------------------------|--0----0----0--0--0--0--|
----------------------------------------------|--4----4----4--4--4--4--|
--4----------------------4--4--4--4--4--4--4--|--5----5----5--5--5--5--|
--2----------------------2--2--2--2--2--2--2--|------------------------|


  E  E  Q    E  E  E  E   
-------------------------|
--L--3--3----3--3--3--3--|
--L--0--0----0--0--0--0--|
--L--4--4----4--4--4--4--|
--L--5--5----5--5--5--5--|
-------------------------|


  I didn't know what I was willing to lose                       
  PM                                       PM PM PM PM PM PM PM  
  E                                        E  E  E  E  E  E  E   
----------------------------------------------------------------|
----------------------------------------------------------------|
----------------------------------------------------------------|
----------------------------------------------------------------|
--5----------------------------------------5--5--5--5--5--5--5--|
--3----------------------------------------3--3--3--3--3--3--3--|


  when I had to choose                                                
  PM                   PM PM PM PM PM PM PM                           
  E                    E  E  E  E  E  E  E     Q    Q    E  E  E  E   
--------------------------------------------|------------------------|
--------------------------------------------|--3----3----3--3--3--3--|
--------------------------------------------|--0----0----0--0--0--0--|
--------------------------------------------|--4----4----4--4--4--4--|
--4--------------------4--4--4--4--4--4--4--|--5----5----5--5--5--5--|
--2--------------------2--2--2--2--2--2--2--|------------------------|


                            Just proof that I was a fool                       
                            PM                           PM PM PM PM PM PM PM  
  E  E  Q    E  E  E  E     E                            E  E  E  E  E  E  E   
-------------------------|----------------------------------------------------|
--L--3--3----3--3--3--3--|----------------------------------------------------|
--L--0--0----0--0--0--0--|----------------------------------------------------|
--L--4--4----4--4--4--4--|----------------------------------------------------|
--L--5--5----5--5--5--5--|--5----------------------------5--5--5--5--5--5--5--|
-------------------------|--3----------------------------3--3--3--3--3--3--3--|


  to ever leave you                                                
  PM                PM PM PM PM PM PM PM                           
  E                 E  E  E  E  E  E  E     E.  E.  E  E.  E.  E   
-----------------------------------------|------------------------|
-----------------------------------------|-------------3----------|
-----------------------------------------|----------0------0------|
-----------------------------------------|------4--------------4--|
--4-----------------4--4--4--4--4--4--4--|------------------------|
--2-----------------2--2--2--2--2--2--2--|--0---------------------|


  E.  E.  E  Q    Q       E.  E.  E  E.  E.  E     E.  E.  E  Q    Q     
-----------------------|------------------------|-----------------------|
-------------0---------|-------------3----------|-------------0---------|
----------0-------0----|----------0------0------|----------0-------0----|
------4----------------|------4--------------4--|------4----------------|
-----------------------|------------------------|-----------------------|
--0--------------------|--0---------------------|--0--------------------|


  Q    S  S  E  E  E  Q       Q    S  S  E  Q    Q     
---------------------------|--------------------------|
-------0h-3p-0-------------|-------0h-3p-0-------0----|
--L-------------0----------|----------------0---------|
-------------------0--L----|--L-----------------------|
---------------------------|--------------------------|
---------------------------|--------------------------|


  Q    E   E  E  E  Q       Q    E  E  E  E  Q       Q    S  S  E  E  E  Q     
-------------------------|------------------------|---------------------------|
--L----1p--0-------------|--L----1--0-------------|-------0h-3p-0-------------|
--------------0----------|-------------0--L--L----|--L-------------0----------|
-----------------0--L----|------------------------|-------------------0--L----|
-------------------------|------------------------|---------------------------|
-------------------------|------------------------|---------------------------|


  Q    S  S  E  Q    Q       Q    E   E  E  E  Q       Q    E  E  E  E  Q     
--------------------------|-------------------------|------------------------|
-------0h-3p-0-------0----|--L----1p--0-------------|--L----1--0-------------|
----------------0---------|--------------0----------|-------------0--L--L----|
--L-----------------------|-----------------0--L----|------------------------|
--------------------------|-------------------------|------------------------|
--------------------------|-------------------------|------------------------|


  Q    S  S  E  E  E  Q       Q    S  S  E  Q    Q     
---------------------------|--------------------------|
-------0h-3p-0-------------|-------0h-3p-0-------0----|
--L-------------0----------|----------------0---------|
-------------------0--L----|--L-----------------------|
---------------------------|--------------------------|
---------------------------|--------------------------|


  Q    E   E  E  E  Q       Q    E  E  E  E  Q       Q    S  S  E  E  E  Q     
-------------------------|------------------------|---------------------------|
--L----1p--0-------------|--L----1--0-------------|-------0h-3p-0-------------|
--------------0----------|-------------0--L--L----|--L-------------0----------|
-----------------0--L----|------------------------|-------------------0--L----|
-------------------------|------------------------|---------------------------|
-------------------------|------------------------|---------------------------|


  Q    S  S  E  Q    Q       Q    E   E  E  E  Q       Q    E  E  E  E  Q     
--------------------------|-------------------------|------------------------|
-------0h-3p-0-------0----|--L----1p--0-------------|-------1--0-------------|
----------------0---------|--------------0----------|-------------0--L--L----|
--L-----------------------|-----------------0--L----|--L---------------------|
--------------------------|-------------------------|------------------------|
--------------------------|-------------------------|------------------------|


  ^                                     
  W                   W                 
-------------------|-------------------|
--0----------------|--L----------------|
--0----------------|--L----------------|
--2----------------|--L----------------|
--3----------------|--L----------------|
-------------------|-------------------|


  Now I just can't miss your forgiveness                             
  W                                         E  E  E  E  E  E  E  E   
-----------------------------------------|--------------------------|
-----------------------------------------|--------------------------|
-----------------------------------------|--------------------------|
-----------------------------------------|--x--x--x--x--x--x--x-----|
-----------------------------------------|--x--x--x--x--x--x--x-----|
-----------------------------------------|--x--x--x--x--x--x--x-----|


  E  E  E  E  E  E  E  E     E  E  E  E  E  E  E  E   
--------------------------|--------------------------|
--3--3--3--3--0--0--0--0--|--3--3--3--3--0--0--0--0--|
--0--0--0--0--0--0--0--0--|--0--0--0--0--0--0--0--0--|
--2--2--2--2--2--2--2--2--|--2--2--2--2--2--2--2--2--|
--3--3--3--3--3--3--3--3--|--3--3--3--3--3--3--3--3--|
--------------------------|--------------------------|


  E  E  E  E  E  E  E  E     E  E  E  E  E  E  E  E   
--------------------------|--------------------------|
--3--3--3--3--0--0--0--0--|--3--3--3--3--0--0--0--0--|
--0--0--0--0--0--0--0--0--|--0--0--0--0--0--0--0--0--|
--2--2--2--2--2--2--2--2--|--2--2--2--2--2--2--2--2--|
--3--3--3--3--3--3--3--3--|--3--3--3--3--3--3--3--3--|
--------------------------|--------------------------|


  Kelly I can't                     go on                      
  Q             Q    E  E  E  E     E     E  Q    E  E  E  E   
---------------------------------|----------------------------|
--3-------------3----3--3--3--3--|--L-----3--3----3--3--3--3--|
--0-------------0----0--0--0--0--|--L-----0--0----0--0--0--0--|
--4-------------4----4--4--4--4--|--L-----4--4----4--4--4--4--|
--5-------------5----5--5--5--5--|--L-----5--5----5--5--5--5--|
---------------------------------|----------------------------|


  pretending                                                  
  E          E  E  E  E  E  E  E     E  E  E  E  E  E  E  E   
----------------------------------|--------------------------|
--3----------3--3--3--0--0--0--0--|--3--3--3--3--0--0--0--0--|
--0----------0--0--0--0--0--0--0--|--0--0--0--0--0--0--0--0--|
--2----------2--2--2--2--2--2--2--|--2--2--2--2--2--2--2--2--|
--3----------3--3--3--3--3--3--3--|--3--3--3--3--3--3--3--3--|
----------------------------------|--------------------------|


  I'm prepared to do                     what it takes                      
  Q                  Q    E  E  E  E     E             E  Q    E  E  E  E   
--------------------------------------|------------------------------------|
--3------------------3----3--3--3--3--|--L-------------3--3----3--3--3--3--|
--0------------------0----0--0--0--0--|--L-------------0--0----0--0--0--0--|
--4------------------4----4--4--4--4--|--L-------------4--4----4--4--4--4--|
--5------------------5----5--5--5--5--|--L-------------5--5----5--5--5--5--|
--------------------------------------|------------------------------------|


  E  E  E  E  E  E  E  E     E  E  E  E  E  E  E  E   
--------------------------|--------------------------|
--3--3--3--3--0--0--0--0--|--3--3--3--3--0--0--0--0--|
--0--0--0--0--0--0--0--0--|--0--0--0--0--0--0--0--0--|
--2--2--2--2--2--2--2--2--|--2--2--2--2--2--2--2--2--|
--3--3--3--3--3--3--3--3--|--3--3--3--3--3--3--3--3--|
--------------------------|--------------------------|


  And once this train                   
  Q                   Q    E  E  E  E   
---------------------------------------|
--3-------------------3----3--3--3--3--|
--0-------------------0----0--0--0--0--|
--4-------------------4----4--4--4--4--|
--5-------------------5----5--5--5--5--|
---------------------------------------|


  reaches its ending                        together                       
  E                  E  Q    E  E  E  E     E        E  E  E  E  E  E  E   
-----------------------------------------|--------------------------------|
--L------------------3--3----3--3--3--3--|--3--------3--3--3--0--0--0--0--|
--L------------------0--0----0--0--0--0--|--0--------0--0--0--0--0--0--0--|
--L------------------4--4----4--4--4--4--|--2--------2--2--2--2--2--2--2--|
--L------------------5--5----5--5--5--5--|--3--------3--3--3--3--3--3--3--|
-----------------------------------------|--------------------------------|


                             i'll stop by to say                   
  E  E  E  E  E  E  E  E     Q                   Q    E  E  E  E   
--------------------------|---------------------------------------|
--3--3--3--3--0--0--0--0--|--3-------------------3----3--3--3--3--|
--0--0--0--0--0--0--0--0--|--0-------------------0----0--0--0--0--|
--2--2--2--2--2--2--2--2--|--4-------------------4----4--4--4--4--|
--3--3--3--3--3--3--3--3--|--5-------------------5----5--5--5--5--|
--------------------------|---------------------------------------|


  E  E  Q    E  E  E  E   
-------------------------|
--L--3--3----3--3--3--3--|
--L--0--0----0--0--0--0--|
--L--4--4----4--4--4--4--|
--L--5--5----5--5--5--5--|
-------------------------|


  you were such a solution and I'm a mistake.                        
  PM                                           PM PM PM PM PM PM PM  
  E                                            E  E  E  E  E  E  E   
--------------------------------------------------------------------|
--------------------------------------------------------------------|
--------------------------------------------------------------------|
--------------------------------------------------------------------|
--5--------------------------------------------5--5--5--5--5--5--5--|
--3--------------------------------------------3--3--3--3--3--3--3--|


  PM PM PM PM PM PM PM PM                       
  E  E  E  E  E  E  E  E     W                  
--------------------------|-------------------||
--------------------------|--3----------------||
--------------------------|--0----------------||
--------------------------|--4----------------||
--4--4--4--4--4--4--4--4--|--5----------------||
--2--2--2--2--2--2--2--2--|-------------------||
Tap to rate this tab
# A B C D E F G H I J K L M N O P Q R S T U V W X Y Z