Song name
# A B C D E F G H I J K L M N O P Q R S T U V W X Y Z

The City On Film - How A Helicopter Sounds tab

Song : How a helicopter Sounds
Artist : The City On Film

tabbed by Kris Johansen


I've mostly just shown the chord shapes once with no indication of
how many strums for each.


intro
	       strum.....
e-x-x-x-x-x-x|-4-------------------------------------------------------|
B-x-x-x-x-x-x|-5-------------------------------------------------------|
G-x-x-x-x-x-x|-6-------------------------------------------------------|
D-x-x-x-x-x-x|-7-------------------------------------------------------|
A------------|---------------------------------------------------------|
D------------|---------------------------------------------------------|



Verse


  strum............
e--4-----|---0-----------------------------------------------------------|
B--5-----|---5-----------------------------------------------------------|
G--6-----|---6-----------------------------------------------------------|
D--7-----|---7-----------------------------------------------------------|
A--0-----|---5-----------------------------------------------------------|
D--------|---0-----------------------------------------------------------|

"So what I want to know...."

(mute a little) |  (strum freely)
    
e-----|---------|--4----|--5--|--7--|--9--------|
B-----|--5------|--5----|--5--|--5--|--7--------|
G--6--|--6------|--6----|--6--|--6--|--7--------|
D--7--|--7------|--0----|--0--|--0--|--0--------|
A--0--|--x------|--0----|--0--|--0--|-(0)-------|
D-----|--6------|--0----|--0--|--0--|-----------|


"What i said was wrong"

e--2----|----4-----|
B--3----|----5-----|
G--4----|----6-----| 
D--5----|----7-----|
A--0----|----0-----|
D--x----|----0-----|

Solo

e------------------------------------|
B------------------------------------|
G----------2h4--4/6--4-6-7-6-4-------|
D---2-2h4----------------------7-6-4-|
A-0----------------------------------|
D------------------------------------|


e---------------------------------------------|
B---------------------------------------------|
G---------------------------------------------|
D-4-6-6/7/6--4--2-----2-0------0--------------|
A----------------------------------4------4--2|
D---------------------------------------------|

e------------------------------------|
B------------------------------------|
G----------2h4--4/6--4-6-7-6-4-------|
D---2-2h4----------------------7-6-4-|
A-0----------------------------------|
D------------------------------------|

e-------------------------------------------------|
B-------------------------------------------------|
G---------4-6--6/7-------7--6---6--/--9------9-/4-|
D--4-6-7------------------------------------------|
A-------------------------------------------------|
D-------------------------------------------------|
Tap to rate this tab
 
# A B C D E F G H I J K L M N O P Q R S T U V W X Y Z