Song name
# A B C D E F G H I J K L M N O P Q R S T U V W X Y Z

The City On Film - Portland Maine And The Pouring Rain tab

Artist: The City on Film
Song: Portland, Maine and the pouring rain
Album: Split 7" with Kind of Like Spitting, In Formal Introduction, Live at the Shelter
(Detroit), Split Tour CD
Tabber: Andrew Biles

I've been going from the live recording for this version as it's the only one I actually
have on my computer.  The one bit towards the bottom that's played seven times is the
only bit I'm unsure about, it sounds as though he's sliding about a bit more but I can't
quite make it out.
On the third chunk of tab I've put down, the (0) bit is there because sometimes he mutes
the string at that point and sometimes he plays it open, so switch between the two options.

Standard Tuning

|-----------------|-----------------|
|---2-------------|-----------------|
|----------2------|---------2-2-----|
|--------0---0----|-2-2-2-2-2-2-2-2-|
|-0------------2--|-0-0-0-0-0-0-0-0-|
|-----------------|-----------------|
               x4                x2

|-----------------|
|---2-------------|
|----------2------|
|--------0---0----|
|-0------------2--|
|-----------------|
               x4

|------------------0-0-0--0-|
|------------2--2--5-5-5--2-|
|------------------4-4-4--4-|
|------x-(0)----------------|
|----4----------------------|
|-/5------------------------|
                         x4

|-----------------|
|---2-------------|
|----------2------|
|--------0---0----|
|-0------------2--|
|-----------------|
              x10

|--------------2-2-2--0---|
|--------2--2--5-5-5--2---|
|--------------4-4-4--4---|
|------0------------------|
|----4--------------------|
|-/5----------------------|
                       x4

|------------------|
|---2--------------|
|----------2-------|
|--------0---0-----|
|-0------------2---|
|------------------|
                x2

|-----------------2-2-2-2-5-5-5-5-|-----------------5---|
|-----------------5-5-5-5-5-5-5-5-|-----------------5---|
|-2-2-2-2-2-2-2-2-4-4-4-4-4-4-4-4-|-2-2-2-2-2-2-2-2-4---|
|-2-2-2-2-4-4-4-4-----------------|-2-2-2-2-4-4-4-4-----|
|-0-0-0-0-0-0-0-0-----------------|-0-0-0-0-0-0-0-0-----|
|---------------------------------|---------------------|
                               x7                    x1

|-----------------------------|-------------|
|-2-2-2--3--0-----------------|-2-2-2--3--0-|
|-2-2-2--4--2-----------------|-2-2-2--4--2-|
|--------5--2-----------------|--------5--2-|
|----------------------0h2p0--|-------------|
|--------------0-0h2p0--------|-------------|
                           x3            x1

|----------------|--------------|
|---2------------|--------------|
|----------2-----|--------------|
|--------0---0---|--------------|
|-0------------2-|-0------------|
|----------------|--------------|
              x2

any questions? andrewbiles@hotmail.com
Tap to rate this tab
# A B C D E F G H I J K L M N O P Q R S T U V W X Y Z