Song name
# A B C D E F G H I J K L M N O P Q R S T U V W X Y Z

The Civil Wars - Falling tab

figure out the strumming

i learned it off the youtube videos

its in droped D capo on 3rd fret
strings sould go from

D B G D A D
TO
F D Am F C F
if youre useing a tuner


here are the chords i use

|-------------|
|-------------|
|-0---0---0--0|
|-4---4---4--4|
|-2----------4|
|-----4---2---|

this is how they are played
|--------------------------|
|--------------------------|
|-----0-------0-------0----|
|---4---4---4---4---4---4--|x5
|-2-----------------------4|
|---------4-------2--------|

then     
|---------|
|------3--|
|------0--|
|----4----|
|---5-----|
|--5------|

and
|-----------|
|---------0-|
|---------0-|
|-----0---0-|
|-------0-2-|
|-0-2h----2-|

then back to
|--------------------------|
|--------------------------|
|-----0-------0-------0----|
|---4---4---4---4---4---4--|x3
|-2-----------------------4|
|---------4-------2--------|

|-----------------|
|----3------------|
|----0-------7--6-|
|---4------7-7--7-|
|--5-----0--------|
|-5---------------|

im not a 100% on this part
|----------0--------|
|----------0------8-|
|-7--7--4--2------7-|
|-7--7--4--0--2---5-|
|-5--4--2--4--2---5-|
|----------4--2---5-|

back to this
|--------------------------|
|--------------------------|
|-----0-------0-------0----|
|---4---4---4---4---4---4--|x2
|-2-----------------------4|
|---------4-------2--------|

here it gets tricky
|---------------------|
|---------------------|
|--0-0--0-0--0-0--0-0-|
|--4-4--4-4--4-4--4-4-|x3
|-2--------------4----|
|------4----2---------|

|------------|
|------------|
|------------|
|---4-4--4-4-|
|---5-5--5-5-|
|--5----5----|

|------------|
|------------|
|------------|
|------0---0-|
|------2---2-|
|-0-2h-2-2-2-|

|---------------------|
|---------------------|
|--0-0--0-0--0-0--0-0-|
|--4-4--4-4--4-4--4-4-|x3
|-2--------------4----|
|------4----2---------|


|------|
|-3----|
|-0--7-|
|-4--7-|
|-5--0-|
|-5----|

|----------0--------|
|----------0------8-|
|-7--7--4--2------7-|
|-7--7--4--0--2---5-|x4
|-5--4--2--4--2---5-|
|----------4--2---5-|

|--------------------------|
|--------------------------|
|-----0-------0-------0----|
|---4---4---4---4---4---4--|x4
|-2-----------------------4|
|---------4-------2--------|
Tap to rate this tab
 
# A B C D E F G H I J K L M N O P Q R S T U V W X Y Z