The Civil Wars - Poison And Wine tab

Capo 2

Intro/Verse 1/Chorus 1
e: ---------------------------------------------------------------|
b: ---------------------------------------------------------------|
G: ---------------------------------------------------------------|
D: ---------------------------------------------------------------|
A: -----------------------------------9-9--9-9-9--9-9-9--9-9-9--9-|
E:-9-9--9-9-9--9-11-11--11-11-11--11- 0-0--0-0-0--0-0-0--0-0-0--0-|


Verse 2/Chorus 2/Outro
e:--0---0---0-|
b:--0---0---0-|
G:-10--10--10-|
D:-11--11--11-|
A:--x---x---9-|
E:--9--11---0-|

He only plays down strokes the whole song.  Pretty easy song to play.
Tap to rate this tab
 
# A B C D E F G H I J K L M N O P Q R S T U V W X Y Z