Song name
# A B C D E F G H I J K L M N O P Q R S T U V W X Y Z

The Civil Wars - To Whom It May Concern tab

Just figured this one out, hope you all enjoy.

Tuning: DADGAD
Capo: 5


INTRO
D------------0-----2-----0-----------0-----------0--------|
A------0h5---------------------2-----------0---------0----|
G---------------------------------------------------------|
D----------4---4-------4---4-------4---4-------4---4------|
A------5-----------5-----------5-----------5--------------|
D---------------------------------------------------------|


                                                                                         
                                                                     
D------------0-----2-----0-----------0-----0---------0--|-------0------|  x 3
A------0h5---------------------2-----------------0------|------------0-|
G-------------------------------------------------------|--------------|
D----------4---4-------4---4-------4---4-------4---4----|------4---4---|
A------5-----------5-----------5-----------5------------|--5-----------|
D-------------------------------------------------------|--------------|



VERSE
D------------0-----2-----0-----------0-----------0--------|
A------0h5---------------------2-----------0---------0----|
G---------------------------------------------------------|
D----------4---4-------4---4-------4---4-------4---4------|
A------5-----------5-----------5-----------5--------------|
D---------------------------------------------------------|


                                                                                         
                                                               
D------------0-----2-----0-----------0----|--------0-----------0-----|  x 2
A------0h5---------------------2----------|--0-----------------------|
G-----------------------------------------|--------------0-----------|
D----------4---4-------4---4-------4---4--|--------------------------|
A------5-----------5-----------5----------|------2---2-------2---2---|
D-----------------------------------------|--2-----------2-----------|


D----------0-------|
A------------------|
G----2-------------|  last time,
D--------0---0-----|  lead into chorus
A------------------|
D----4-------------|



CHORUS
D------------0-----------0-----------0-----------0------|
A-------------------------------------------------------|
G------0-----------0-----------0-----------0------------|
D----------0---0-------0---0-------0---0-------0---0----|
A-------------------------------------------------------|
D------5-----------5-----------5-----------5------------|


D------------0-----------0-----------0-----------0------|
A-------------------------------------------------------|
G------0-----------0-----------2-----------2------------|
D----------0---0-------0---4-------0---0-------0---0----|
A------2-----------2-----------0------------------------|
D------------------------------------------4------------|


D------------0-----------0------------------------------|
A-------------------------------------------------------|
G------0-----------0-----------0------------------------|
D----------0---0-------0---0----------------------------|
A-------------------------------------------------------|
D------5-----------5-----------5------------------------|



BRIDGE
D------------0-----------0-----------0----------0------|
A------0-----------0----------0-----------0------------|
G------------------------------------------------------|
D----------4---4-------4---4------4---4-------4---4----|  x 3
A------5-----------3----------------------0------------|
D-----------------------------5------------------------|


D------------0-----------0------------------------------|
A-------------------------------------------------------|
G------0-----------0-----------0-------2----------------|
D-------------------------------------------------------|
A----------2---2-------2---2---2------------------------|
D------2-----------2-------------------4----------------|
Tap to rate this tab
 
# A B C D E F G H I J K L M N O P Q R S T U V W X Y Z