Song name
# A B C D E F G H I J K L M N O P Q R S T U V W X Y Z

The Civil Wars - Go tab

Just started making a tab for this today, will be updating it as i go along. this 
is my first tab, so let me know if i make mistakes.

-------------------------------------------------------------------------------
			     Go - The Civil Wars
-------------------------------------------------------------------------------
Tabbed by: Benjamin Duggan
Email: Benaduggan@gmail.com

Tuning: Standard - EADGBE


h - hammer-on

Intro
E|---------------0---------------7---------------0---------------|
B|-------0h8-------------0h8-------------0h8-------------0h8-----|
G|--0h7-------0-----0h7-------0-----0h7-------0-----0h7-------0--| 
D|---------------------------------------------------------------|
A|---------------------------------------------------------------|
E|---------------------------------------------------------------|

Verse
E|---------------0---------------7---------------0---------------|
B|-------0h8-------------0h8-------------0h8-------------0h8-----|
G|--0h7-------0-----0h7-------0-----0h7-------0-----0h7-------0--| 
D|---------------------------------------------------------------|
A|---------------------------------------------------------------|
E|---------------------------------------------------------------|


More Coming!
Tap to rate this tab
# A B C D E F G H I J K L M N O P Q R S T U V W X Y Z