Song name
# A B C D E F G H I J K L M N O P Q R S T U V W X Y Z

The Civil Wars - Barton Hollow tab

The Civil Wars – Barton Hollow
Drop D Tuning – Capo 1st Fret.
Very simple song, but didn’t see any others that looked at all correct. This is. x

Main Riff:
|------0-----x---------------------------|
|------3-----x---------------------------|
|------2-----x----2-------------2--------|
|---0--0-----x----0---0---0-----0--------|
|---3--------x----0---3b4-0-0---0--------|
|------------x--------------3b4-0--------|

Interlude 1:
|--0--------------------------------|
|--3--------------------------------|
|--2--------------------------------|
|--0--------------------------------|
|--0--------------------------------|
|--0--------------------------------|

Interlude 2:
|--0-----------------x-0--------0--0-0-0-x-0--------|
|--3--------3--3-3-3-x-3--------3--3-3-3-x-3--------|
|--3--------3--3-3-3-x-2--------2—-2-2-2-x-3--------|
|--3--------3--3-3-3-x-0--------0—-0-0-0-x-3--------|
|--1--------1--1-1-1-x-0--------0—-0-0-0-x-1--------|
|----------------------0--------0—-0-0-0-x----------|


|--0----------0--------|
|--3--3-3-3-x-2--------|
|--3--3-3-3-x-2--------|
|--3--3-3-3-x-2--------|
|--1--1-1-1-x-0--------|
|----------------------|

Interlude 3: x3
|-1-1-1-1-------------------------|
|-3-3-3-3-3-3-3-3-3-3-3-3-3-3-3-3-|
|-2-2-2-2-2-2-2-2-0-0-0-0-3-3-3-3-|
|-0-0-0-0-0-0-0-0-0-0-0-0-3-3-3-3-|
|---------3-3-3-3-2-2-2-2-1-1-1-1-|
|---------------------------------|

End:
|-0-0-0-0-0-0-0-0-0-0-0-0-0--0--------|
|-2-2-2-2-2-2-2-2-2-2-2-2-2—-3--------|
|-2-2-2-2-2-2-2-2-2-2-2-2-2—-2--------|
|-2-2-2-2-2-2-2-2-2-2-2-2-2—-0--------|
|-0-0-0-0-0-0-0-0-0-0-0-0-0--0--------|
|----------------------------0--------|
Tap to rate this tab
# A B C D E F G H I J K L M N O P Q R S T U V W X Y Z