Guitaretab - guitar tabs
Song name
# A B C D E F G H I J K L M N O P Q R S T U V W X Y Z

The Civil Wars - Cest La Mort chords

Highlighted       Show chord diagrams
This song is easiest with a capo on the 7th fret for the chords. The chords listed below 
are with respect to the capo.

G                        D
Swan dive down eleven stories high
G                         D
Hold your breath until you see the light
G                            D
You can sink to the bottom of the sea
C                  D
Just don't go without me

(Same pattern as before)
Go get lost where no one can be found
Drink so long and deep until you drown
Say your goodbyes but darlin' if you please,
Don't go without me.

B7        C    Am       D
C'est la vie, c'est la mort.
B7         C     Am        D
You and me, Forever more.

Let's walk down the road that has no end
Steal away where only angels tread
Heaven or hell or somewhere in between
Cross your heart to take me when you leave
Don't go
Please don't go
Don't go without me

Optional things:
[ Tab from: http://www.guitaretab.com/t/the-civil-wars/315228.html ]
The riff that starts after the first stanza is without a capo and in drop D.
-------------------------------------------------------------|
-------------------------------------------------------------|
7-7-7-7-11-11-11-11-6-6-6-6-12-12-12-11----------------------|
0-0-0-0-0--0--0--0--0-0-0-0--0--0--0--0----------------------|
5-5-5-5-9--9--9--9--4-4-4-4--10-10-10-9----------------------|
0-0-0-0-0--0--0--0--0-0-0-0--0--0--0--0----------------------|

The bridge is probably the real reason you people are here,
since it wasn't included in the other tab and it's why I wrote
this in the first place. For people who want to get more
complicated, it has several direct transition notes between
the chords you can play.

Also, the last part of the bridge can be done like this (relative to capo)

------------------------------------------------------------|
----3--------3--------3--------3----------------------------|
--2---2----2---2----2---2----2---2--------------------------|
0-----------------------------------------------------------|
---------3--------2--------0--------------------------------|
------------------------------------------------------------|
Related for Cest La Mort chords
Cest La Mort chords by The Civil Wars