Song name
# A B C D E F G H I J K L M N O P Q R S T U V W X Y Z

The Civil Wars - The Violet Hour tab

-------------------------------------------------------------------------------
                         THE VIOLET HOUR - The Civil Wars
-------------------------------------------------------------------------------
Tabbed by: helicon2
Email:helicon343@gmail.com

Tuning: Standard
Capo: 5th fret (all noted relative to capo)

e|----------2-------------0---------------------------------------|
B|-------1-------------1-------------1--0--1-----------1--0--1----|
G|----2-------------2-------------2-----------2-----2-------------|
D|--------------------------------------------------------------0-|
A|---------------0-------------0-----------------0----------------|
E|----------------------------------------------------------------|

e|----------------------------3-----------------------------------|
B|-------1--0--1-----------1-------------1--0--1-----------1--0---|
G|----2-----------2-----2-------------2-----------2-----2---------|
D|-3-----------------3--------------------------------------------|
A|---------------------------------0-----------------0------------|
E|----------------------------------------------------------------|

e|----------2-------------0---------------------------------------|
B|-------1-------------1-------------1--0--1-----------1--0--1----|
G|----2-------------2-------------2-----------2-----2-------------|
D|--------------------------------------------------------------0-|
A|-0-------------0-------------0-----------------0----------------|
E|----------------------------------------------------------------|

e|----------------------------3------------------------------------|
B|-------1--0--1-----------1-----1----------1--0--1----------------|
G|----2-----------2-----2-----------2----2-----------2-----2-------|
D|-3-----------------3---------------------------------------------|
A|-------------------------------------0-----------------0----0--0-|
E|-----------------------------------------------------------------|



e|------------------------------------------------------------------------|
B|----------1-----------------1-----------------0-----------------0-------|
G|-------0-----0-----------0-----0-----------0-----0-----------0-----0----|
D|----2-----------2-----2-----------2-----0-----------0-----0-----------0-|
A|-3-----------------3-----------------2-----------------2----------------|
E|------------------------------------------------------------------------|

e|------------------------------------------------------------------------|
B|----------------------------------------------1-----------------1-------|
G|----------2-----------------2--------------0-----0-----------0----------|
D|-------3-----3-----------3--------------2-----------2-----2-------------|
A|----3-----------3-----3--------------3-----------------3----------------|
E|-1-----------------1----------------------------------------------------|

e|------------------------------------------------------------------------|
B|----------1-----------------1-----------------0-----------------0-------|
G|-------0-----0-----------0-----------------0-----0-----------0-----0----|
D|----2-----------2-----2-----------------0-----------0-----0-----------0-|
A|-3-----------------3-----------------2-----------------2----------------|
E|------------------------------------------------------------------------|

e|------------------------------------|
B|------------------------------------|
G|----------2-----------------2-------|
D|-------3-----3-----------3----------|
A|----3-----------3-----3-------------|
E|-1-----------------1----------------|



e|----------2-------------0---------------------------------------|
B|-------1-------------1-------------1--0--1-----------1--0--1----|
G|----2-------------2-------------2-----------2-----2-------------|
D|--------------------------------------------------------------0-|
A|-0-------------0-------------0-----------------0----------------|
E|----------------------------------------------------------------|

e|----------------------------3------------------------------------|
B|-------1--0--1-----------1-----1----------1--0--1-----------1----|
G|----2-----------2-----2-----------2----2-----------2-----2-------|
D|-3-----------------3---------------------------------------------|
A|-------------------------------------0-----------------0-------0-|
E|-----------------------------------------------------------------|


e|----------2-------------0---------------------------------------|
B|-------1-------------1-------------1--0--1-----------1--0--1----|
G|----2-------------2-------------2-----------2-----2-------------|
D|--------------------------------------------------------------0-|
A|-0-------------0-------------0-----------------0----------------|
E|----------------------------------------------------------------|

e|----------------------------3------------------------------------|
B|-------1--0--1-----------1-----1----------1--0--1-----------1----|
G|----2-----------2-----2-----------2----2-----------2-----2-------|
D|-3-----------------3---------------------------------------------|
A|-------------------------------------0-----------------0-------0-|
E|-----------------------------------------------------------------|



e|------------------------------------------------------------------------|
B|----------1-----------------1-----------------0-----------------0-------|
G|-------0-----0-----------0-----0-----------0-----0-----------0----------|
D|----2-----------2-----2-----------2-----0-----------0-----0-------------|
A|-3-----------------3-----------------2-----------------2----------------|
E|------------------------------------------------------------------------|

e|------------------------------------------------------------------------|
B|----------------------------------------------0-----------------1-------|
G|----------2-----------------2--------------0-----0-----------0----------|
D|-------3-----3-----------3--------------2-----------2-----2-------------|
A|----3-----------3-----3--------------3-----------------3----------------|
E|-1-----------------1----------------------------------------------------|


e|------------------------------------------------------------------------|
B|----------1-----------------1-----------------0-----------------0-------|
G|-------0-----0-----------0-----------------0-----0-----------0----------|
D|----2-----------2-----2-----------------0-----------0-----0-------------|
A|-3-----------------3-----------------2-----------------2----------------|
E|------------------------------------------------------------------------|

e|------------------------------------|
B|------------------------------------|
G|----------2-----------------2-------|
D|-------3-----3-----------3----------|
A|----3-----------3-----3-------------|
E|-1-----------------1----------------|



e|------------------------------------------------------------------------|
B|-------1--------1--------1--------1--------1--------1--------1--------1-|
G|----2--------2--------2--------2--------2--------2--------2--------2----|
D|------------------------------------------------------------------------|
A|-0--------------------------2--------0--------------------------2-------|
E|----------0--------1--------------------------0--------1----------------|

e|------------------------------------------------------------------------|
B|-------1--------1--------1--------1--------1--------1--------1----------|
G|----2--------2--------2--------2--------2--------2--------2-------------|
D|------------------------------------------------------------------------|
A|-0--------------------------2--------0----------------------------------|
E|----------0--------1--------------------------0--------1--------4-------|



e|----------2-------------0---------------------------------------|
B|-------1-------------1-------------1--0--1-----------1--0--1----|
G|----2-------------2-------------2-----------2-----2-------------|
D|--------------------------------------------------------------0-|
A|-0-------------0-------------0-----------------0----------------|
E|----------------------------------------------------------------|

e|----------------------------3------------|
B|-------1--0--1-----------1-----1---------|
G|----2-----------2-----2-----------2------|
D|-3-----------------3---------------------|
A|-------------------------------------(0)-|
E|-----------------------------------------|
Tap to rate this tab
# A B C D E F G H I J K L M N O P Q R S T U V W X Y Z