Song name
# A B C D E F G H I J K L M N O P Q R S T U V W X Y Z

The Civil Wars - Cest La Mort tab

This part is played for the first 0:45 of the song along with some keys.

e|--------------12-----12----------------|
B|--10-----------------------------------|
G|-----11-9-11-----11-----11-------------|
D|---------------------------------------|
A|---------------------------------------|
E|---------------------------------------|


At 0:34, there is a slight variation:
e|---------------9-----7-----------------|
B|--10-----------------------------------|
G|-----11-9-11-----11-----11-------------|
D|---------------------------------------|
A|---------------------------------------|
E|---------------------------------------|

The chords already posted for this song are nearly 100% accurate so feel free to play 
them along with this tab.
Tap to rate this tab
# A B C D E F G H I J K L M N O P Q R S T U V W X Y Z