Song name
# A B C D E F G H I J K L M N O P Q R S T U V W X Y Z

The Civil Wars - Tracks In The Snow tab

Capo on 7th fret.  All noted relative to capo.

INTRO
E--4-----------4-------|
B-----3--0--3-----3--0-|
G----------------------|
D----2-2-2-2-2---2-2-2-|  X 2
A----------------------|
E--0-----------0-------|

VERSE
E--4-----------4---------4-----------4-----------0--------0------4-----------4-------|
B-----3--0--3-----3--0------3--0--3-----3--0--3-----0--3-----3------3--0--3-----3--0-|
G------------------------------------------------------------------------------------|
D----2-2-2-2-2---2-2-2-----2-2-2-2-2---2-2-2--0-0-0-0-0-0-0-0-0----2-2-2-2-2---2-2-2-|  X 2
A------------------------------------------------------------------------------------|
E--0-----------0---------0-----------0---------------------------0-----------0-------|

CHORUS
E-------------------------------------------------------------|
B-0--5--0--5--0--5--0--5--0--5--3--5--3--5--3--5--3--5--3--5--|
G-------------------------------------------------------------|
D-2-2-2-2-2-2-2-2-2-2-2-2-2-2-2-0-0-0-0-0-0-0-0-0-0-0-0-0-0-0-|
A-------------------------------------------------------------|
E-------------------------------------------------------------|

E-------------------------------------------------------------|
B-0--5--0--5--0--5--0--5--0--5--2--5--2--5--2--5--2--5--2--5--|
G-------------------------------------------------------------|
D-2-2-2-2-2-2-2-2-2-2-2-2-2-2-2-------------------------------|
A-------------------------------4-4-4-4-4-4-4-4-4-4-4-4-4-4-4-|
E-------------------------------------------------------------|

BRIDGE
These are some funky chords that I can't figure out.  They're all variations on 
E.  Any help would be appreciated.

STRUCTURE:
-Intro
-Verse
-Chorus
-Bridge
-Intro
-Verse
-Chorus
-Bridge
-Verse
-Chorus (with some rests and pauses)
-Bridge
Tap to rate this tab
# A B C D E F G H I J K L M N O P Q R S T U V W X Y Z