Song name
# A B C D E F G H I J K L M N O P Q R S T U V W X Y Z

The Civil Wars - Girl With The Red Balloon tab

Intro:
e--------0---3---------------0---3---------------0---3--------------0------|
B--0h1-------------0---0h1-------------0---0h1-------------0---0h1-------1-|
G--------------------------------------------------------------------------|
D------2---------2-2-------2---------2-2-------2---------2-2-------2-------|
A--0-------------------0-------------------0-------------------0---------0-|
E------------0-------------------0-------------------0---------------------|

Verses 1 & 2:
There's a pub on the south side of town
Time stands still while there's still wine around
She's the one in the calico
The one who's always and never alone

Keep her glass full of cheap champagne
She will tell of a man with no name
Smoke and mirrors have done her in
She's in love and she won't be again
e--------0---3---------------0---3---------------0---3--------------0------|
B--0h1-------------0---0h1-------------0---0h1-------------0---0h1---------|
G--------------------------------------------------------------------------|
D------2---------2-2-------2---------2-2-------2---------2-2-------2-------|
A--0-------------------0-------------------0-------------------0-----------|
E------------0-------------------0-------------------0---------------------|

e-------------------------------0-0-0-----------0---------0---3------------|
B--1----------------------------1-1-1----------------0h1------------0------|
G--------------0-0-------0-0----2-2-2-----------1--------------------------|
D----0---------2-2-------0-0----3-3-3---------2----------2--------2-2------|
A--0---2---3-------------2-2-------------------------0---------------------|
E--------------------3--------------------0-------------------0------------|

e--------0---3---------------0---3---------------0---3--------------0------|
B--0h1-------------0---0h1-------------0---0h1-------------0---0h1---------|
G--------------------------------------------------------------------------|
D------2---------2-2-------2---------2-2-------2---------2-2-------2-------|
A--0-------------------0-------------------0-------------------0-----------|
E------------0-------------------0-------------------0---------------------|

e----3---------------0--------------------------------0-0-0---------0------|
B----------0---0h1-------1----------------------------1-1-1----------------|
G------------------------------------0-0-------0-0----2-2-2---------1------|
D--------2-2-------2-------0---------2-2-------0-0----3-3-3-------2--------|
A--------------0---------0---2---3-------------2-2-------------------------|
E----0-------------------------------------3-------------------0-----------|

e--------0---3---------------0---------------------------------------------|
B--0h1-------------0---0h1---------1---------------------------------------|
G--------------------------------------------------------------------------|
D------2---------2-2-------2-----------------------------------------------|
A--0-------------------0-----------0---------------------------------------|
E------------0-------------------------------------------------------------|

Chorus 1:
Did she let him go? 
Or did the four winds blow him away?
Does she even know?
She's the girl with the red balloon
e------0-0-------0-0-------0-0-------0-0-----------------------------------|
B------1-1-------1-1-------1-1-------1-1-------1-1--------1-1-------1-1----|
G------2-2-------2-2-------2-2-------2-2-------0-0--------0-0-------0-0----|
D--3---------3---------3---------3-------------2-2--------2-2-------2-2----|
A------------------------------------------3----------3---------3----------|
E--------------------------------------------------------------------------|





e--------------------------------------------------------------------------|
B------1-1-------3-3-------3-3-------3-3-------3-3-------------------------|
G------0-0-------1-1-------1-1-------1-1-------1-1-------1-1---------------|
D------2-2-------3-3-------3-3-------3-3-------3-3-------2-2---------------|
A--3---------2---------2---------2---------2-------------2-2---------------|
E----------------------------------------------------0---------0-----------|

e--------------------------------------0---3---------------0---3-----------|
B--------------------------------0h1-------------0---0h1-------------0-----|
G------1-1------------1-1--------------------------------------------------|
D------2-2------------2-2------------2---------2-2-------2---------2-2-----|
A------2-2------------2-2--------0-------------------0---------------------|
E--0---------0----0---------0--------------0-------------------0-----------|

e--------0---3--------------0----------------------------------------------|
B--0h1-------------0---0h1-------1-----------------------------------------|
G--------------------------------------------------------------------------|
D------2---------2-2-------2-----------------------------------------------|
A--0-------------------0---------0-----------------------------------------|
E------------0-------------------------------------------------------------|

Chorus 2:
Oh, did she let him go?
Or did the four winds blow him away?
Oh, does she even know?
She's the girl with the red balloon
e------0-0-------0-0-------0-0-------0-0-----------------------------------|
B------1-1-------1-1-------1-1-------1-1-------1-1--------1-1-------1-1----|
G------2-2-------2-2-------2-2-------2-2-------0-0--------0-0-------0-0----|
D--3---------3---------3---------3-------------2-2--------2-2-------2-2----|
A------------------------------------------3----------3---------3----------|
E--------------------------------------------------------------------------|

e--------------------------------------------------------------------------|
B------1-1-------3-3-------3-3-------3-3-------3-3-------------------------|
G------0-0-------1-1-------1-1-------1-1-------1-1-------1-1---------------|
D------2-2-------3-3-------3-3-------3-3-------3-3-------2-2---------------|
A--3---------2---------2---------2---------2-------------2-2---------------|
E----------------------------------------------------0---------0-----------|

e--------------------------------------------------------------------------|
B--------------------------------------------------------------------------|
G------1-1------------1-1--------------------------------------------------|
D------2-2------------2-2--------------------------------------------------|
A------2-2------------2-2--------------------------------------------------|
E--0---------0----0---------0----------------------------------------------|

Bridge:
So lovely
So lonely
Floating away
e------0-0-------0-0-------0-0-------0-0--------0-0-------0-0-------0-0----|
B------1-1-------1-1-------1-1-------1-1--------1-1-------1-1-------1-1----|
G--2---------0------------------------------2---------0--------------------|
D----------------------3---------2------------------------------3----------|
A--0----------------------------------------0------------------------------|
E--------------------------------------------------------------------------|

e------0-0--------0-0-------0-0-------0-0-------0-0--------0-0-------0-0---|
B------1-1--------1-1-------1-1-------1-1-------1-1--------1-1-------1-1---|
G-------------2---------0------------------------------2---------0---------|
D--2------------------------------3---------2------------------------------|
A-------------0----------------------------------------0-------------------|
E--------------------------------------------------------------------------|






e------0-0-------0-0--------0-0-------0-0-------0-0-------0-0-------0-0----|
B------1-1-------1-1--------1-1-------1-1-------1-1-------1-1-------0-0----|
G-----------------------2---------0---------------------------------1-1----|
D--3---------2------------------------------3---------2---------2----------|
A-----------------------0--------------------------------------------------|
E--------------------------------------------------------------------------|

e----------------0-0---0-------------0-0-----------------0-0---0-----------|
B----------------0-0---0-------------0-0-----------------0-0---0-----------|
G----------------1-1---1-------------1-1-----------------1-1---1-----------|
D--2---------2---------2---------2---------2---------2---------2-----------|
A--------------------------------------------------------------------------|
E--------------------------------------------------------------------------|

Last Chorus / End:
Oh, did she let him go?
Or did the four winds blow him away?
Oh, does she even know?
Oh, did she let him go?
Or did the four winds blow him away?
Oh, does she even know?
She's the girl, she's the girl with the red balloon
e------0-0-------0-0-------0-0-------0-0-----------------------------------|
B------1-1-------1-1-------1-1-------1-1-------1-1--------1-1-------1-1----|
G------2-2-------2-2-------2-2-------2-2-------0-0--------0-0-------0-0----|
D--3---------3---------3---------3-------------2-2--------2-2-------2-2----|
A------------------------------------------3----------3---------3----------|
E--------------------------------------------------------------------------|

e--------------------------------------------------------------------------|
B------1-1-------3-3-------3-3-------3-3-------3-3-------------------------|
G------0-0-------1-1-------1-1-------1-1-------1-1-------------------------|
D------2-2-------3-3-------3-3-------3-3-------3-3-------------------------|
A--3---------2---------2---------2---------2-------------------------------|
E--------------------------------------------------------------------------|

e------0-0-------0-0-------0-0-------0-0-----------------------------------|
B------1-1-------1-1-------1-1-------1-1-------1-1--------1-1-------1-1----|
G------2-2-------2-2-------2-2-------2-2-------0-0--------0-0-------0-0----|
D--3---------3---------3---------3-------------2-2--------2-2-------2-2----|
A------------------------------------------3----------3---------3----------|
E--------------------------------------------------------------------------|

e--------------------------------------------------------------------------|
B------1-1-------3-3-------3-3------3---3---3---3--------------------------|
G------0-0-------1-1-------1-1------1---1---1---1--------1-1---------------|
D------2-2-------3-3-------3-3------3---3---3---3--------2-2---------------|
A--3---------2---------2------------2---2---2---2--------2-2---------------|
E----------------------------------------------------0---------0-----------| 

e-----------------------------------------------------0---3----------------|
B-----------------------------------------------0h1-------------0----------|
G------1-1------------1-1------------1-1-----------------------------------|
D------2-2------------2-2------------2-2------------2---------2-2----------|
A------2-2------------2-2------------2-2--------0--------------------------|
E--0---------0----0---------0----0---------0--------------0----------------|

e--------0---3---------------0---3---------------0---------0---------------|
B--0h1-------------0---0h1-------------0---0h1-------0h1-------------------|
G--------------------------------------------------------------------------|
D------2---------2-2-------2---------2-2-------2---------2-----------------|
A--0-------------------0-------------------0---------0---------------------|
E------------0-------------------0-----------------------------------------|






e--------0---3---------------0---3---------------0---3---------------------|
B--0h1-------------0---0h1-------------0---0h1-------------0---0h1---------|
G--------------------------------------------------------------------------|
D------2---------2-2-------2---------2-2-------2---------2-2---------------|
A--0-------------------0-------------------0-------------------0-----------|
E------------0-------------------0-------------------0---------------------|
Tap to rate this tab
# A B C D E F G H I J K L M N O P Q R S T U V W X Y Z