Song name
# A B C D E F G H I J K L M N O P Q R S T U V W X Y Z

The Civil Wars - Dust To Dust tab

-------------------------------------------------------------------------------
                                              Dust to Dust - The Civil Wars
-------------------------------------------------------------------------------
Tabbed by: Erik Kim
E-mail: erik_kim_91@hotmail.com

This is my very first tab. So, please don't tear me apart.
Such a simple tab, but such beautiful song.
This is also one of my favorite songs in their new album.

"I love for music to be like cinema and there be a beginning and an end and a climax and
all those good things. But sometimes it's best served to keep it even pace. You have to
fight all of tendencies to stay on that even cue with this song and keep things mellow 
from front to back. And I think because of it, you have a sense of drama because of, you
know, there is none." John Paul White on Dust to Dust

Tuning: Standard
Capo: 1st Fret
The guitar is palm muted throughout the song.

Intro
e|-------------------------------------------------|
B|-------------------------------------------------|
G|-------------------------------------------------|
D|------6---6---6---6---6---6---6---6--------------|    X 4
A|----4---4---4---4---4---4------------------------|
E|-----------------------------4---4---------------|

Verse: (Play twice in a row the first time)
e|---------------------------------------------------------------------------|
B|---------------------------------------------------------------------------|
G|---------------------------------------------------------------------------|
D|------6---6---6---6---6---6---6---6----6---6---6---6---6---6---6---6-------|
A|----4---4---4---4---4---4------------4---4---4---4---4---4-----------------|
E|-----------------------------4---4-----------------------------4---4-------|

e|---------------------------------------------------------------------------|
B|---------------------------------------------------------------------------|
G|---------------------------------------------------------------------------|
D|------6---6---6---6---6---6---6---6---6---6---6---6---6---6---6---6--------|
A|---------------------------------------------------------------------------|
E|----6---6---6---6---6---6---4---4----6---6---6---6---6---6---4---4---------|

e|---------------------------------------------------------------------------|
B|---------------------------------------------------------------------------|
G|---------------------------------------------------------------------------|
D|------4---4---4---4---4---4---4---4----------------------------------------|
A|----------------------------------------6---6---6---6---6---6---6----------|
E|----2---2---2---2---2---2---2---2----4---4---4---4---4---4---4---4---------|

e|-------------------------------------------------|
B|-------------------------------------------------|
G|-------------------------------------------------|
D|------6---6---6---6---6---6---6---6--------------|    X 2
A|----4---4---4---4---4---4------------------------|
E|-----------------------------4---4---------------|

Chorus:
e|--------------------------------------------------------------------------|
B|--------------------------------------------------------------------------|
G|--------------------------------------------------------------------------|
D|------4---4---4---4---4---4---4---4--/---8---8---8---8---8---8---8---8----|
A|--------------------------------------------------------------------------|
E|----2---2---2---2---2---2---2---2----/--6---6---6---6---6---6---6---6-----|

e|---------------------------------------------------------------------------|
B|---------------------------------------------------------------------------|
G|---------------------------------------------------------------------------|
D|---\---6---6---6---6---6---6---6---6--/----8---8---8---8---8---8---6---6---|
A|---------------------------------------------------------------------------|
E|---\-4---4---4---4---4---4---4---4----/--6---6---6---6---6---6---4---4-----|

e|-----------------------------------------------------------------------------|
B|-----------------------------------------------------------------------------|
G|-----------------------------------------------------------------------------|
D|---\-----4---4---4---4---4---4---4---4--/----8---8---8---8---8---8---8---8---|
A|-----------------------------------------------------------------------------|
E|----\--2---2---2---2---2---2---2---2----/--6---6---6---6---6---6---6---6-----|

e|-------------------------------------------------|
B|-------------------------------------------------|
G|-------------------------------------------------|
D|---\----6---6---6---6---6---6---6---6------------|
A|-------------------------------------------------|
E|---\--4---4---4---4---4---4---4---4---4----------|

(Play Verse Then Chorus)

Bridge:
e|---x--------x--------x--------x-------|
B|---x--------x--------x--------x-------|
G|---3--------x--------x--------x-------|
D|---3--------3--------3--------0-------| X2
A|---0--------3--------4--------4-------|
E|---0--------0--------0--------0-------|

Verse:
e|---------------------------------------------------------------------------|
B|---------------------------------------------------------------------------|
G|---------------------------------------------------------------------------|
D|------6---6---6---6---6---6---6---6----6---6---6---6---6---6---6---6-------|
A|----4---4---4---4---4---4------------4---4---4---4---4---4-----------------|
E|-----------------------------4---4-----------------------------4---4-------|

e|---------------------------------------------------------------------------|
B|---------------------------------------------------------------------------|
G|---------------------------------------------------------------------------|
D|------6---6---6---6---6---6---6---6---6---6---6---6---6---6---6---6--------|
A|---------------------------------------------------------------------------|
E|----6---6---6---6---6---6---4---4----6---6---6---6---6---6---4---4---------|

e|---------------------------------------------------------------------------|
B|---------------------------------------------------------------------------|
G|---------------------------------------------------------------------------|
D|------4---4---4---4---4---4---4---4----------------------------------------|
A|----------------------------------------6---6---6---6---6---6---6----------|
E|----2---2---2---2---2---2---2---2----4---4---4---4---4---4---4---4---------|

e|---------------------------------------------------------------------------|
B|---------------------------------------------------------------------------|
G|---------------------------------------------------------------------------|
D|------3---3---3---3---3---3---3---3---3---3---3---3---3---3---3------------|
A|----4---4---4---4---4---4--------------------------------------------------|
E|-----------------------------4---4---2---2---2---2---2---2---2---2---------|

e|-------------------------------------------|
B|-------------------------------------------|
G|-------------------------------------------|
D|------0---0---0---0---0---0---0---0--------|
A|----4---4---4---4---4---4---4---4----------|
E|-------------------------------------------|

Outro:
e|-------------------------------------------------|
B|-------------------------------------------------|
G|-------------------------------------------------|
D|------6---6---6---6---6---6---6---6--------------|   X2
A|----4---4---4---4---4---4------------------------|
E|-----------------------------4---4---------------|

e|-------------------------------------------------|
B|-------------------------------------------------|
G|-------------------------------------------------|
D|------6---6---6---6---6---6---6---6--------------|
A|----4---4---4---4---4---4------------------------|
E|-----------------------------4---4---4-----------|



************************************

| /   slide up
| \   slide down


************************************
Tap to rate this tab
# A B C D E F G H I J K L M N O P Q R S T U V W X Y Z