Song name
# A B C D E F G H I J K L M N O P Q R S T U V W X Y Z

The Civil Wars - Sacred Heart tab

-------------------------------------------------------------------------------
                             Sacred Heart - The Civil Wars
-------------------------------------------------------------------------------
Tabbed by: roweboat
Tuning: Standard
Capo 4

Intro/Verse
        C                G               F                   C
e|-------------0--------------------------------------------0-------------------|
B|-----1h3------------0-----1-------------------------------------1-------------|
G|---------------------------------0h2-----0------------0-----0-----------------|
D|-----------2---2--------0---0----------3---3----0h2---------------------------|
A|-----3-------------------------------------------3----------------------------|
E|--------------------3------------1--------------------------------------------|

            G                   F                     C
e|----------------------------------------------------0----------------------------|
B|-----0------1-------------------0---------0h1------------1-----------------------|
G|----------------------0h2--------------------------------------------------------|
D|---------0-----0-------------3-----3------------2-----2--------------------------|
A|------------------------------------------3------------------3-------------------|
E|-----3----------------1----------------------------------------------------------|

Chorus
        A                                   Dm
e|-------------0-----------------0-----1-------0-----------------------------|
B|-----2------------2----2---3--------------------------3-------1------------|
G|----------2----2--------------------------2-----2----------2-----2---------|
D|-------------------------------------0----------------0--------------------|
A|-----0-----------------0---------------------------------------------------|
E|---------------------------------------------------------------------------|

             G                                           C
e|-----------------------------------------0---------------------------------|
B|------0--------0--------0----1---3---------------3---------1-------0-------|
G|-----------0------0---------------------------0-----0-----------0-----0----|
D|---------------------------------------------------------------------------|
A|-----------------------------------------3-----------------3---------------|
E|------3-----------------3--------------------------------------------------|

           A                                         Dm
e|-------------0-----------------0-----1-------0-----------------------------|
B|-----2------------2----2---3--------------------------3-------1------------|
G|----------2----2--------------------------2-----2----------2-----2---------|
D|-------------------------------------0----------------0--------------------|
A|-----0-----------------0---------------------------------------------------|
E|---------------------------------------------------------------------------|

             G
e|----------------------------------------------------0---------1------------|
B|------0--------0--------0----1---3--------3--------------------------------|
G|-----------0------0-----------------------------0------0-------------------|
D|---------------------------------------------------------------------------|
A|---------------------------------------------------------------------------|
E|------3-----------------3-----------------3-------------------3------------|

Post-Chorus

    Am                  Am/G              Am/F#
e|---------------------------------------------------------------------------|
B|---------1--1---------1---1-----------1------------------------------------|
G|---------2--2---------2---2-----------2------------------------------------|
D|-----------------------------------------------------x3--------------------|
A|-----0---------------------------------------------------------------------|
E|------------------3---------------2----------------------------------------|

              F                              G
e|-----------------------------------------------------------------------------|
B|-----------1h3---1h3-------1-------------------------------------------------|
G|-----------2-----2---------2------------0-----0-------0----------------------|
D|----------------------------------------0h2---0h2-----0----------------------|
A|-----------------------------------------------------------------------------|
E|------1--------------------1------------3--------------3---------------------|

The rest of the song follows the same idea, although there's more strumming in the 
succeeding verse than there is picking. Outro is the same as the intro. Enjoy!
************************************

| /   slide up
| \   slide down
| h   hammer-on
| p   pull-off
| ~   vibrato
| +   harmonic
| x   Mute note
| b   Bend
| pb  Pre-bend
| br  Bend release
| pbr Pre-bend release
| brb Bend release bend

************************************
Tap to rate this tab
# A B C D E F G H I J K L M N O P Q R S T U V W X Y Z