Song name
# A B C D E F G H I J K L M N O P Q R S T U V W X Y Z

The Civil Wars - Kingdom Come tab

The Civil Wars
Hunger Games Soundtrack
Kingdom Come

Tabbed by: Aaron91

Tuning: Standard
Capo: 7th Fret

NOTES:

1) Am Riff - This is played throughout the song
|--0-0--0-0-0---------|
|--1-1--1p0h1---------|
|--2-2--2-2-2---------|
|--2-2--2-2-2---------|
|--0-0--0-0-0------0--|
|--------------0-3----|

2) Chord Strumming - In this song JPW seems to do a Down-Down Up-Down-Up pattern for 
most of the chords played

==Intro==

Am

==Verse==

Am
Run, run, run away
Am
Buy yourself another day
Dm                   Am
A cold wind's whispering
E               Am
Secrets in your ear
Dm      Am           E             G    E
So low only you can hear           Ho - oh

==Verse==

Am
Run, run, run and hide
Am
Somewhere no one else can find
Dm          Am               E               Am
Tall trees bend their lean pointing where to go
Dm              Am             E          G    E
Where you will still be all alone         Ho - oh

==Chorus==

|----------------------------------|
|------1--------1------1--------1--|
|----2--------0------0--------0----|
|--3------0h2------0---------------|
|-------------------------0h3------|
|----------------------------------|

|------------0--------|
|--------3------------|
|----------0-----0----|
|------0-------0------|
|--0h2-------------2--|
|---------------------|

|----------------------------------|
|------1--------1------1--------1--|
|----2--------0------0--------0----|
|--3------0h2------0---------------|
|-------------------------0h3------|
|----------------------------------|

|------------0--------|
|--------3------------|
|----------0-----0----|
|------0-------0------|
|--0h2-------------2--|
|---------------------|

|----------------------------------|
|------1--------1------1--------1--|
|----2--------0------0--------0----|
|--3------0h2------0---------------|
|-------------------------0h3------|
|----------------------------------|

|------------0--------------0--------------0--------|
|--------3--------------3--------------3------------|
|----------0-----0--------0-----0--------0-----0----|
|------0-------0------0-------0------0-------0------|
|--0h2-------------2--------------2--------------2--|
|---------------------------------------------------|

Am

==Verse==

Am
Run fast as you can
Am
No one has to understand
Dm          Am               E                Am
Fly high across the sky from here to kingdom come
Dm         Am                  E      G    E
Fall back down to where you're from   Oo - oo

==Chorus==

Dm      C      G    Am   G
Don't you fret my dear
         Dm     C     G  Am    G
It'll    all    be    ov-er    soon
Dm   C  G    Am   G   E   G
I'll be wai- ting he-ee-ee-ere
     Am
for you
     Am       Dm
For you, for you
F        G (hammer-on the A string - 0h2)


|----------------------------------|
|------1--------1------1--------1--|
|----2--------0------0--------0----|
|--3------0h2------0---------------|
|-------------------------0h3------|
|----------------------------------|

|------------0--------|
|--------3------------|
|----------0-----0----|
|------0-------0------|
|--0h2-------------2--|
|---------------------|

|----------------------------------|
|------1--------1------1--------1--|
|----2--------0------0--------0----|
|--3------0h2------0---------------|
|-------------------------0h3------|
|----------------------------------|

|------------0--------|
|--------3------------|
|----------0-----0----|
|------0-------0------|
|--0h2-------------2--|
|---------------------|

|----------------------------------|
|------1--------1------1--------1--|
|----2--------0------0--------0----|
|--3------0h2------0---------------|
|-------------------------0h3------|
|----------------------------------|

|------------0------0000--|
|--------3----------1111--|
|----------0-----0--2222--|
|------0-------0----2222--|
|--0h2--------------0000--|
|-------------------------|

Dm      C  G   Am   G
Don't you fret my dear        oh
        Dm  C  G Am   G
It'll  all be  ov-er  soon
Dm   C   G    Am  G  E  G
I'll be wai- ting he-ee-ere
     Am
For you

==Outro==

Am


Any recommendations/changes will be appreciated!

Thanks!
Tap to rate this tab
# A B C D E F G H I J K L M N O P Q R S T U V W X Y Z